Artists by letter: A B C D E F G H I J K L M N O P Q R S T U V W X Y Z 0-9

 
Chinese Democracy Tab
Chinese Democracy
Guns N' Roses
Chinese Democracy
tabbed by btb3
fb-full bend
hb-half bend
h-hammer on
~-Tremelo pick
~^-tremelo bend
ph-pinch harmonic
s-sustain note


e--------------------|
b--------------------|
g--7-7--10-12-12-12--|    X3
d--7-7--10-12-12-12--|   
a--5-5--8--10-10-10--|
d--------------------|

e---------------------------------|
b---------------------------------|
g--7-7--10-12-12-12--13-13-13-13--|   X3
d--7-7--10-12-12-12--13-13-13-13--|
a--5-5--8--10-10-10--11-11-11-11--|
d---------------------------------|

e---------------------|
b---------------------|
g--13-13-13-13-12-12--|   X3
d--13-13-13-13-12-12--|
a--11-11-11-11-10-10--|
d---------------------|

e---------------------|      
b---------------------|      
g---------------------|   X3 
d--0-0--3--5-5-5------|      
a--0-0--3--5-5-5------|      
d--0-0--3--5-5-5------|      

During the second of the above riff, this lead is played

e--8fb-5----------|
b-------8fb-7-5---|
g--------------7--|
d-----------------|
a-----------------|
d-----------------|

e---------------------|
b---------------------|
g----------10-10------|
d--0-0--3--10-10-8----|
a--0-0--3--8--8--8----|
d--0-0--3--------8----|

Verse
                          
e--------------------|
b--------------------|
g--------------------|
d--0-0-0-0--3-2-1-0--|
a--0-0-0-0--3-2-1-0--|
d--0-0-0-0--3-2-1-0--|

The verse is split up into 7 different guitar riffs

    1       2          3         4         5
e-------|-------|------------|-------|-----------|
b-------|-------|------------|-------|-----------|
g-------|-------|------------|-------|-----------|
d--5-6--|--5ph--|--0-5--5-6--|--5-3--|--5-6------|
a--5-6--|-------|-------5-6--|-----5-|--5-6-3-5--|
d--5-6--|-------|-----0-5-6--|-------|--5-6------|

       6            7     
e-------------|-----------|
b-------------|-----------|
g-------------|-----------|
d-------------|--5-6------|
a-------------|--5-6-3-5--|
d--3-5fb-3-5--|--5-6------|

Pre-chorus

e----------------------|
b----------------------|
g----------------------|
d--0-0--3-3--5-5--6-6--|
a--0-0--3-3--5-5--6-6--|
d--0-0--3-3--5-5--6-6--|

e--------------------------------------------|
b--------------------------------------------|
g-----------------------------------10-10----|
d--0-0--8-8-9-9-15--2-2-2-2-2-2-2-2-10-10-8--|
a--0-0--8-8-9-9-15--2-2-2-2-2-2-2-2-8--8--8--|
d--0-0--8-8-9-9-15--2-2-2-2-2-2-2-2-------8--|

Verse

e--------------------|
b--------------------|
g--------------------|
d--0-0-0-0--3-2-1-0--|
a--0-0-0-0--3-2-1-0--|
d--0-0-0-0--3-2-1-0--|

    1         2            3         4  
e-------|-----------|------------|-------|
b-------|-----------|------------|-------|
g-------|-----------|------------|-------|
d--5-6--|--5-6------|--0-5--5-6--|--5-3--|
a--5-6--|--5-6-3-5--|-------5-6--|-----5-|
d--5-6--|--5-6------|-----0-5-6--|-------|

Pre-chorus

e----------------------|
b----------------------|
g----------------------|
d--0-0--3-3--5-5--6-6--|
a--0-0--3-3--5-5--6-6--|
d--0-0--3-3--5-5--6-6--|

e--------------------------------------------|
b--------------------------------------------|
g-----------------------------------10-10----|
d--0-0--8-8-9-9-15--2-2-2-2-2-2-2-2-10-10-8--|
a--0-0--8-8-9-9-15--2-2-2-2-2-2-2-2-8--8--8--|
d--0-0--8-8-9-9-15--2-2-2-2-2-2-2-2-------8--|

You can jam out during this pre-chorus

Solo

e---------------------------------------------|
b--20fb-20-19-19fb-20fb-20-20-20--------------|
g--------------------------------17-19-19-17--|
d---------------------------------------------|
a---------------------------------------------|
d---------------------------------------------|

e---------------------------------------------20-22--|
b--20fb-20-19-19---------------------17-20--20-------|
g----------------17-17-17-19-19fb-19------17---------|
d----------------------------------------------------|
a----------------------------------------------------|
d----------------------------------------------------|

e-------10------10----------------10-----10~~~~~~22--| Pick up to fret 22 
b----------------------------------------------------|
g----------------------12~^--------------------------|
d--10-12---10-12--10-12------10-12--10-12------------|
a----------------------------------------------------|
d----------------------------------------------------|

e------------------|
b--10-13--10-------|
g-------12--12-10--|  X3
d------------------|
a------------------|
d------------------|

e---------------------|
b--10-13--10----------|
g-------12--12-13~~~--|
d---------------------|
a---------------------|
d---------------------|

e----18-20-22--|--13-10--10------------------|
b--20----------|-------13--13-10--10---------|
g--------------|----------------12--12-10----|
d--------------|-------------------------12--|
a--------------|-----------------------------|
d--------------|-----------------------------|

Riffs to end

e--------------8fb-8fb-10fb-8--|
b-----8fb-8fb------------------|
g--6fb-------7-----------------|
d------------------------------|
a------------------------------|
d------------------------------|

e--16fb-16-15-14-12-8-10--|--12-10--|--15fb-15fb----|
b-------------------------|--12-10--|-----------15--|
g-------------------------|--12-10--|---------------|
d-------------------------|---------|---------------|
a-------------------------|---------|---------------|
d-------------------------|---------|---------------|

e--10-13-10--10---------------------|
b----------13--13-10--10-----15~~~--|
g-------------------12--12-10-------|
d-----------------------------------|
a-----------------------------------|
d-----------------------------------|

e----13-15-15fb-15-10s-12s-13s--|
b--15---------------------------|
g-------------------------------|
d-------------------------------|
a-------------------------------|
d-------------------------------|

e--10-13-10--10---------------------|
b----------13--13-10--10------------|
g-------------------12--12-10fb-----|
d-------------------------------12--|
a-------------------------------12--|
d-------------------------------12--|

 
 
Guns N Roses - Chinese Democracy Tab :: indexed at Ultimate Guitar.
Chinese Democracy tabs @ 911Tabs

Quick tip, so you can enjoy Chinese Democracy Tab even more:

YourChords.com Guitar Chords and Tabs Archive is currently indexing over 240'000 songs from 21'000+ different artists. And new chords just keep on coming in, so you will surely never run out of them.

Show us your talent, perform Chinese Democracy Tab!

Here you can post a video or audio performance. Tell me more ...
Where can we find your performance? Tell me more ...
Your comment:
Please, log in to post your performance.