Artists by letter: A B C D E F G H I J K L M N O P Q R S T U V W X Y Z 0-9

 
Chinese Democracy Tab
Soft Intro

E-|--------------------------------------------------------------------|
B-|--------6-------8-------6---------------6-------8-------5-----------|
G-|------7---7---7-------7---7-----------7---7---7-------5---5-----5---|
D-|----9-------9-------9-------9-5-----9-------9-------5-------5-------|
A-|--5---------------5-------------5-5---------------3-----------3-----|
D-|--------------------------------------------------------------------|

E-|--------------------------------------------------------------------|
B-|--------6-------8-------6---------------6-------8-8-8-8-8-8-8-8-8---|
G-|------7---7---7-------7---7-----------7---7---7---7-7-7-7-7-7-7-7---|
D-|----9-------9-------9-------9-5-----9-------9-----------------------|
A-|--5---------------5-------------5-5---------------------------------|
D-|--------------------------------------------------------------------|

Heavy Intro

E-|-------------------------------------------------------------------|
B-|-------------------------------------------------------------------|
G-|-------------------------------------------------------------------|
D-|--0---0-x-x-3-3-5---5--------0---0-x-x-3-3-5---5-------------------|
A-|-------------------------------------------------------------------|
D-|--0---0-x-x-3-3-5---5--------0---0-x-x-3-3-5---5-------------------|

E-|-------------------------------------------------------------------|
B-|-------------------------------------------------------------------|
G-|-------------------------------------------------------------------|
D-|--0---0-x-x-3-3-5---5--------0---0-x-x-3-3-5-5--5-5-5-6-6-6--------|
A-|-------------------------------------------------------------------|
D-|--0---0-x-x-3-3-5---5--------0---0-x-x-3-3-5-5--5-5-5--------------|

E-|-------------------------------------------------------------------|
B-|-------------------------------------------------------------------|
G-|-------------------------------------------------------------------|
D-|--0---0-x-x-3-3-5---5--6----0---0-x-x-3-3-5-5--5-5-5-6-6-6--------|
A-|-------------------------------------------------------------------|
D-|--0---0-x-x-3-3-5---5--6----0---0-x-x-3-3-5-5--5-5-5--------------|

E-|-----------------------------------------------|
B-|-----------------------------------------------|
G-|-----------------------------------------------|
D-|------5-5--5-5-5-6-6-6----5-5--5-5-5-6-6-6-----|
A-|-----------------------------------------------|
D-|------5-5--5-5-5----------5-5--5-5-5-6-6-6-----|


Chorus 1

E-|------------------------------------|
B-|------------------------------------|
G-|------------------------------------|
D-|--0---0-x-x-3-3-5--5--5-x-x-6-6-----|
A-|--0---0-x-x-3-3-5--5--5-x-x-6-6-----|
D-|--0---0-x-x-3-3-5--5--5-x-x-6-6-----| x 3

E-|------------------------------------|
B-|------------------------------------|
G-|-------------------5-5-5-5----------|
D-|--0---0-x-x-3-3-5--5-5-5-5-5-5-5-5--|
A-|--0---0-x-x-3-3-5--3-3-3-3-5-5-5-5--|
D-|--0---0-x-x-3-3-5----------5-5-5-5--| x 1

Lead Guitar 

E-|-------------------------------------------------------------------|
B-|--13b15r13p10----10------------------------------------------------|
G-|--ph----------12----12-10--10-10h12-10---7\----------------------|
D-|-------------------------------------------------------------------|
A-|-------------------------------------------------------------------|
D-|-------------------------------------------------------------------|


Verse 1

At the end of the bar
E-|-------10------------------------|
B-|-----8----8----------------------|
G-|---------------------------------|
D-|---------------------------------|
A-|---------------------------------|
D-|---------------------------------|


E-|--------------------------10---------------------------------------|
B-|---6~~~~~~~~~~~~~~~-----8----8--6~~~~~~~~~~~~~~~~~-------15~~~~----|
G-|-------------------------------------------------------------------|
D-|-------------------------------------------------------------------|
A-|-------------------------------------------------------------------|
D-|-------------------------------------------------------------------|

Chorus 2

E-|------------------------------------|
B-|------------------------------------|
G-|------------------------------------|
D-|--0---0-x-x-3-3-5--5--5-x-x-6-6-----|
A-|--0---0-x-x-3-3-5--5--5-x-x-6-6-----|
D-|--0---0-x-x-3-3-5--5--5-x-x-6-6-----| x 3




All they got...
E-|-------------------------------------------------------------------|
B-|-------------------------------------------------------------------|
G-|---------3-3-3-3-5-5-5------------------------------3--------------|
D-|-0-0-0-0-3-3-3-3-5-5-5-3------2-2-2-2-2-2-2-2-3-3-3-3--------------|
A-|-0-0-0-0-1-1-1-1-3-3-3-3------2-2-2-2-2-2-2-2-3-3-3-1--------------|
D-|-0-0-0-0---------------3------2-2-2-2-2-2-2-2-3-3-3----------------|

Verse 2 (pretty much the same as verse 1)


E-|------------------------------------10~~~~~~~~~--------------------|
B-|--6~~~~~~~~~~~~-6~~~~~~~~~~-8~~~~~~--------------------------------|
G-|-------------------------------------------------------------------|
D-|-------------------------------------------------------------------|
A-|-------------------------------------------------------------------|
D-|-------------------------------------------------------------------|

Chorus 2

E-|------------------------------------|
B-|------------------------------------|
G-|------------------------------------|
D-|--0---0-x-x-3-3-5--5--5-x-x-6-6-----|
A-|--0---0-x-x-3-3-5--5--5-x-x-6-6-----|
D-|--0---0-x-x-3-3-5--5--5-x-x-6-6-----| x 3


All they got...
E-|-----------------------------------------------------------------|
B-|-----------------------------------------------------------------|
G-|---------3-3-3-3-5-5-5------------------------------3------------|
D-|-0-0-0-0-3-3-3-3-5-5-5-3------2-2-2-2-2-2-2-2-3-3-3-3------------|
A-|-0-0-0-0-1-1-1-1-3-3-3-3------2-2-2-2-2-2-2-2-3-3-3-1------------|
D-|-0-0-0-0---------------3------2-2-2-2-2-2-2-2-3-3-3--------------| 



E-|--13b15r13p10----10----13-10----------------10---------------------|
B-|--ph----------13----13-------13b15r13p10h13----13-10-13-10---------|
G-|-----------------------------ph----------------------------12-10---|
D-|-------------------------------------------------------------------|
A-|-------------------------------------------------------------------|
D-|-------------------------------------------------------------------|



E-|-------------13b15----8h12p8---8h12p8---8h12p8---8h12p8-10-12-10-8-|
B-|-----------------------------10-------10-------10------------------|
G-|-12b14r12-10-------------------------------------------------------|
D-|-------------------------------------------------------------------|
A-|-------------------------------------------------------------------|
D-|-------------------------------------------------------------------|


E-|---------10--------------------------------------------------------|
B-|-12-10-8----10-8-10-11-10-8----------------------------------------|
G-|----------------------------10-8-7---------------------------------|
D-|-------------------------------------------------------------------|
A-|-------------------------------------------------------------------|
D-|-------------------------------------------------------------------|

All they got...
E-|-----------------------------------------------------------------|
B-|-----------------------------------------------------------------|
G-|---------3-3-3-3-5-5-5------------------------------3------------|
D-|-0-0-0-0-3-3-3-3-5-5-5-3------2-2-2-2-2-2-2-2-3-3-3-3------------|
A-|-0-0-0-0-1-1-1-1-3-3-3-3------2-2-2-2-2-2-2-2-3-3-3-1------------|
D-|-0-0-0-0---------------3------2-2-2-2-2-2-2-2-3-3-3--------------| 



E-|--13b15r13p10----10----13-10----------------10---------------------|
B-|--ph----------13----13-------13b15r13p10h13----13-10-13-10---------|
G-|-----------------------------ph----------------------------12-10---|
D-|-------------------------------------------------------------------|
A-|-------------------------------------------------------------------|
D-|-------------------------------------------------------------------|







E-|-------------13b15--------------|
B-|--------------------------------|
G-|-12b14r12-10--------------------|
D-|--------------------------------|
A-|--------------------------------|
D-|--------------------------------|

Guitar Solo

E-|--15b17r15-15-14b15--14b15--8-----8-------10--10-----15b17r15b17r15|
B-|------------------------------10-----10----------10----------------|
G-|-------------------------------------------------------------------|
D-|-------------------------------------------------------------------|
A-|-------------------------------------------------------------------|
D-|-------------------------------------------------------------------|

E-|-14~---10-8-8---8-10--14--10-10------/8-14-10----8-10-8-22---------|
B-|----------------------------------------------10-------------------|
G-|-------------------------------------------------------------------|
D-|-------------------------------------------------------------------|
A-|-------------------------------------------------------------------|
D-|-------------------------------------------------------------------|

E-|----------5----------5------------3b-cuts in an out----------------|
B-|--2h3p2h3---2h3p2h3----2h3p2h3-------------------------------------|
G-|-------------------------------------------------------------------|
D-|-------------------------------------------------------------------|
A-|-------------------------------------------------------------------|
D-|-------------------------------------------------------------------|

E-|----------5----------5------------10////22-------------------------|
B-|--2h3p2h3---2h3p2h3----2h3p2h3-------------------------------------|
G-|-------------------------------------------------------------------|
D-|-------------------------------------------------------------------|
A-|-------------------------------------------------------------------|
D-|-------------------------------------------------------------------|


E-|-------------------------------------------------------------------|
B-|-10p8p6p0h6h8h10p8p6p0h6h8-----------------------------------------|
G-|-----------------------------10p8p7p0h7h8h10p8p7p0h6h7h------------|
D-|-------------------------------------------------------------------|
A-|-------------------------------------------------------------------|
D-|-------------------------------------------------------------------|



E-|---------------10--10---------17---20---22--------------------------|
B-|-------10b11-------13b15-------------------------------------------|
G-|--7b8--------------------------------------------------------------|
D-|-------------------------------------------------------------------|
A-|-------------------------------------------------------------------|
D-|-------------------------------------------------------------------|

I imagine he uses some sort of octave shifter on the 17, 20, 22.
Just slide up from an octave lower on each note respectively.


E-|-13p10p8h10p8h10p8h10----8-----------------------------------------|
B-|----------------------12---12p10p8h10p8h10p8h10--------------------|
G-|------------------------------------------------10p8h10p8h10-------|
D-|-------------------------------------------------------------------|
A-|-------------------------------------------------------------------|
D-|-------------------------------------------------------------------|


E-|--------------------------------------10b11r10~~~~-----------------|
B-|----------9b10--7-9b10r9-------------------------------------------|
G-|--7~~~~~------------------7~~~-------------------------------------|
D-|-------------------------------------------------------------------|
A-|-------------------------------------------------------------------|
D-|-------------------------------------------------------------------|

Chorus 1

E-|------------------------------------|
B-|------------------------------------|
G-|------------------------------------|
D-|--0---0-x-x-3-3-5--5--5-x-x-6-6-----|
A-|--0---0-x-x-3-3-5--5--5-x-x-6-6-----|
D-|--0---0-x-x-3-3-5--5--5-x-x-6-6-----| x 3

E-|------------------------------------|
B-|------------------------------------|
G-|-------------------5-5-5-5----------|
D-|--0---0-x-x-3-3-5--5-5-5-5-5-5-5-5--|
A-|--0---0-x-x-3-3-5--3-3-3-3-5-5-5-5--|
D-|--0---0-x-x-3-3-5----------5-5-5-5--| x 1






E-|--13b14---8~~~------------19---------------------------------------|
B-|-------------------19b20------19b20r19-15-19-15-15~~~~~------------|
G-|-------------------------------------------------------------------|
D-|-------------------------------------------------------------------|
A-|-------------------------------------------------------------------|
D-|-------------------------------------------------------------------|

Chorus 2

E-|------------------------------------|
B-|------------------------------------|
G-|------------------------------------|
D-|--0---0-x-x-3-3-5--5--5-x-x-6-6-----|
A-|--0---0-x-x-3-3-5--5--5-x-x-6-6-----|
D-|--0---0-x-x-3-3-5--5--5-x-x-6-6-----| x 3


E-|------------------------------------------|
B-|------------------------------------------|
G-|---------3-3-3-3-5-5-5--------------------|
D-|-0-0-0-0-3-3-3-3-5-5-5-3------------------|
A-|-0-0-0-0-1-1-1-1-3-3-3-3------------------|
D-|-0-0-0-0---------------3--x3--------------| 

Out of... TIIIMMMMEEE

E-|--------------------------------------|
B-|--------------------------------------|
G-|-------------------------3------------|
D-|---2-2-2-2-2-2-2-2-3-3---3------------|
A-|---2-2-2-2-2-2-2-2-3-3---1------------|
D-|---2-2-2-2-2-2-2-2-3-3----------------| 




 
 
Guns N Roses - Chinese Democracy Tab :: indexed at Ultimate Guitar.
Chinese Democracy tabs @ 911Tabs

Quick tip, so you can enjoy Chinese Democracy Tab even more:

After the registration (which takes just 10 seconds, remember?) you will be able to use your profile - your very own piece of YourChords.com.

Show us your talent, perform Chinese Democracy Tab!

Here you can post a video or audio performance. Tell me more ...
Where can we find your performance? Tell me more ...
Your comment:
Please, log in to post your performance.