Artists by letter: A B C D E F G H I J K L M N O P Q R S T U V W X Y Z 0-9

 
Gone Tomorrow Tab
_______________________________________________________________

                Grinspoon - Gone Tomorrow
_______________________________________________________________

Artist: Grinspoon
Song: Gone Tomorrow
Album: New Detention (universal)
Transcribed by Flip ([email protected])

Played in Drop D tuning, down 1/2 step. That means you tune it
down to Drop D first then tune every string down an extra 1/2
step. If don't wont to tune it down 1/2 step then you don't
have to but you do have to Drop D. I'd play it down 1/2 a step
anyway cause it sounds sweet with the deeper notes. I hope it's
right. Enjoi!


Drop D tuning, down 1/2 step:
(low to high) Db-Ab-Db-Gb-Bb-Eb

Intro: (dist.)

                                   D5
eb|---------------------------------------------------|
Bb|---------------------------------------------------|
Gb|--------------------------------2--2--2--2--2--2---|
Db|--------------------------------0--0--0--0--0--0---|
Ab|---------------------------------------------------|
Db|--0--2-----0--2-----0--2-----0---------------------|

                                  C5
----------------------------------------------------|
----------------------------------------------------|
----------------------------------------------------|
---------------------------------5--5--5--5--5--5---|
---------------------------------3--3--3--3--3--3---|
---0--2-----0--2-----0--2-----0---------------------|


Riff A-

                                  D5
|---------------------------------------------------|
|---------------------------------------------------|
|--------------------------------7--7--7--7--7--7---|
|--------------------------------7--7--7--7--7--7---|
|--------------------------------5--5--5--5--5--5---|
|--0--2-----0--2-----0--2-----0---------------------|

                                  C5
----------------------------------------------------|
----------------------------------------------------|
---------------------------------5--5--5--5--5--5---|
---------------------------------5--5--5--5--5--5---|
---------------------------------3--3--3--3--3--3---|
---0--2-----0--2-----0--2-----0---------------------|

[Riff A, played twice]


1st Verse: (clean) w/wah-wah pedal

     D
|----------------------------------------------------|
|---7-----------7-----------7-----------7------------|
|---7-----------7-----------7-----------7------------|
|---7-----------7-----------7-----------7------------|
|---5-----x--x--5-----x--x--5-----x--x--5-----x--x---|
|----------------------------------------------------|
                If you can't expect to take some blame

You should fucking know you ain't that perfect

[play Riff A again]

Sorry that it had to end this way
Now I guess you're looking for an answear

                                  D5
|---------------------------------------------------|
|---------------------------------------------------|
|--------------------------------7--7--7--7--7--7---|
|--------------------------------7--7--7--7--7--7---|
|--------------------------------5--5--5--5--5--5---|
|--0--2-----0--2-----0--2-----0---------------------|

                                  Db5
----------------------------------------------------|
----------------------------------------------------|
---------------------------------6--6--6--6--6--6---|
---------------------------------6--6--6--6--6--6---|
---------------------------------4--4--4--4--4--4---|
---0--2-----0--2-----0--2-----0---------------------|

                                  C5
----------------------------------------------------|
----------------------------------------------------|
---------------------------------5--5--5--5--5--5---|
---------------------------------5--5--5--5--5--5---|
---------------------------------3--3--3--3--3--3---|
---0--2-----0--2-----0--2-----0---------------------|

                                  Db5
----------------------------------------------------|
----------------------------------------------------|
---------------------------------6--6--6--6--6--6---|
---------------------------------6--6--6--6--6--6---|
---------------------------------4--4--4--4--4--4---|
---0--2-----0--2-----0--2-----0---------------------|


Chorus: (dist.)

    A                 G5
|---------------------------------------------------|
|--2--------2--2------------------------------------|
|--2--------2--2------------------------------------|
|--2--------0--0-----5----------------5-------------|
|--0--------0--0-----5----------------5-------------|
|--------------------5----------------5-------------|
             If   when                 I'm

    Gb5               E5
---------------------------------------------------|
---------------------------------------------------|
---------------------------------------------------|
---4--------4--4-----0----------------0------------|
---4--------4--4-----0----------------0------------|
---4--------4--4-----0----------------0------------|
   gone         to - mor      -      row

This mightn't sop in sorrow
Those dreams have past you long ago

    E5
|---------------------------------------------------|
|---------------------------------------------------|
|---------------------------------------------------|
|--2-----2--2--2-----2--2--2-----2--2--2-----2--2---|
|--2-----2--2--2-----2--2--2-----2--2--2-----2--2---|
|--2-----2--2--2-----2--2--2-----2--2--2-----2--2---|
               Those       dreams      have

     G5
-----------------------------|
-----------------------------|
-----------------------------|
---5-----------5-----5-------|
---5-----------5-----5-------|
---5-----------5-----5-------|
          past   you long ago

[play Intro again]


2nd Vesre: Same as 1st Verse

Could've just moved into my place
But you wanted me to sell a sucker

[play Riff A]

This is not the way it's meant to rage
You could've found another reject

[play Riff A, then the Chorus again]


Bridge: (dist.)

|--------------------------------------------------|
|--------------------------------------------------|
|--------------------------------------6-b-(7)-----|
|--------------------------------------------------|
|--------------------------------------------------|
|--0--2-----0--2-----0--2-----0--2--0--------------|

                                        C5
---------------------------------------------------|
---------------------------------------------------|
---------------------------------------5--5--5-----|
---------------------------------------5--5--5-----|
---------------------------------------3--3--3-----|
---0--2-----0--2-----0--2-----0--2--0--------------|

[played twice]


Solo: (dist.)

|--------------------------------------------------|
|--4~-------4~-------4h(5)~~~~~~~~~~~--------------|
|--------------------------------------------------|
|--------------------------------------------------|
|--------------------------------------------------|
|--------------------------------------------------|

---------------------------------------------------|
---6--------6-------6p(5)~~~~~~~~~~~~-------------|
---------------------------------------------------|
---------------------------------------------------|
---------------------------------------------------|
---------------------------------------------------|

---------------------------------------------------|
---4~-------4~-------4h(5)~~~~~~~~~~~--------------|
---------------------------------------------------|
---------------------------------------------------|
---------------------------------------------------|
---------------------------------------------------|

---------------------------------------------4~~~~-|
---6--------6-------6p(5)~~~~~~~~~~~~-5~~~~~~5~~~~-|
---------------------------------------------------|
---------------------------------------------------|
---------------------------------------------------|
---------------------------------------------------|

[play Chorus again]


Outro: (dist.)

    D5
|--------------------------------------------------|
|--------------------------------------------------|
|--------------------------------------------------|
|--------0-----------0-----------0-----------0-----|
|--0--0--0-----0--0--0-----0--0--0-----0--0--0-----|
|--0--0--0-----0--0--0-----0--0--0-----0--0--0-----|
PM: ^  ^  ^     ^  ^  ^     ^  ^  ^     ^  ^  ^

                            F5 D5    F5    D5 F5
--------------------------------------------------|
--------------------------------------------------|
--------------------------------------------------|
---------0-----------0-----------0--3-----0--3----|
---0--0--0-----0--0--0-----0--0--0--3-----0--3----|
---0--0--0-----0--0--0-----0--0--0--3-----0--3----|
    ^  ^  ^     ^  ^  ^     ^  ^  ^

[played twice before Gtr. 2 enters]


Gtr. 2 (clean) w/ wah-wah pedal

|--8--8--8-----8--8--8-----8--8--8-----8--8--8-----|
|--------------------------------------------------|
|--------------------------------------------------|
|--------------------------------------------------|
|--------------------------------------------------|
|--------------------------------------------------|

---8--8--8-----8--8--8-----5--5--5--5------6--5---|
--------------------------------------------------|
--------------------------------------------------|
--------------------------------------------------|
--------------------------------------------------|
--------------------------------------------------|

[played twice over Gtr. 1]

[Gtr. 1 ends on D5]

 
 
Grinspoon - Gone Tomorrow Tab :: indexed at Ultimate Guitar.
Gone Tomorrow tabs @ 911Tabs
People who played Grinspoon - Gone Tomorrow Tab also played these songs by Grinspoon:
Minute By Minute Tab, Comeback Tab, Hard Act To Follow Tab, Drugs Dont Work Tab, Minute By Minute Acoustic Tab, Sweet As Sugar Tab

About the artist behind Gone Tomorrow Tab:

Grinspoon are an Australian post-grunge band from Lismore, fronted by Phil Jamieson with Pat Davern on guitar, Joe Hansen on bass, and Kristian Hopes on drums.

Indexed at Wikipedia.

Show us your talent, perform Gone Tomorrow Tab!

Here you can post a video or audio performance. Tell me more ...
Where can we find your performance? Tell me more ...
Your comment:
Please, log in to post your performance.