Artists by letter: A B C D E F G H I J K L M N O P Q R S T U V W X Y Z 0-9

Stranger Things Have Happened Tab (ver 5) - Foo Fighters


 
Stranger Things Have Happened Tab
Artist: Foo Fighters
Album: Echoes, Patience, Silence & Grace
Song: Stranger Things Have Happened
Tabbed By: Crocky

This is my 1st tab, hope you like :)

Enjoy.


/ = slide up
 = slide down
b = bend
h = hammer on
p = pull off
x = dead note
~ = vibrato


Intro And Verse

0:14

e|----------------------------------------------------------------| Intro x2
B|----------------------------------------------------------------|
G|------2---2-2-------2---2-2--------2---2-2----2--2--2--2--------| Verse x6
D|------0---0-2----------------------0---0-2----0--0--0--2-----0--|
A|--2-2---2-----0-----0---0-2------2---2------2------------0h2----|
E|----------------2-2---2-----1-0---------------------------------|


Chorus listen to the song to figure out strumming pattern

1:32

e|--0--|--0--|--0--|--0--|--2--|--0-0--|--0-0-|--0--| x2
B|--0--|--0--|--0--|--0--|--3--|--0-0--|--0-0-|--0--|
G|--4--|--2--|--4--|--1--|--2--|--2-2--|--1-2-|--1--|
D|--4--|--4--|--5--|--2--|--0--|--4-3--|--2-2-|--2--|
A|--2--|--4--|--5--|--2--|-----|--4-3--|--2-2-|--2--|
E|-----|--0--|--3--|--0--|-----|-------|------|--0--|



Guitar 1 2:11

e|----------------------------------------------------------------| x2 with guitar 2
B|----------------------------------------------------------------|
G|------2---2-2-------2---2-2--------2---2-2----2--2--2--2--------| 
D|------0---0-2----------------------0---0-2----0--0--0--2-----0--|
A|--2-2---2-----0-----0---0-2------2---2------2------------0h2----|
E|----------------2-2---2-----1-0---------------------------------|

Guitar 2

e|------5----5/7----5----4----0-|-----5-----5/7-----5----4----4b5r2-5h7--|
B|----3----3------3----3----3---|---3-----3-------3----3----3------------|
G|--4----4------4----4----4-----|-4-----4-------4----4----4--------------|
D|------------------------------|----------------------------------------|
A|------------------------------|----------------------------------------|
E|------------------------------|----------------------------------------|





Guitar 1 only 2:30

e|----------------------------------------------------------------| x2
B|----------------------------------------------------------------|
G|------2---2-2-------2---2-2--------2---2-2----2--2--2--2--------| 
D|------0---0-2----------------------0---0-2----0--0--0--2-----0--|
A|--2-2---2-----0-----0---0-2------2---2------2------------0h2----|
E|----------------2-2---2-----1-0---------------------------------|






Guitar 1 2:50

e|----------------------------------------------------------------| x2 with guitar 2
B|----------------------------------------------------------------|
G|------2---2-2-------2---2-2--------2---2-2----2--2--2--2--------| 
D|------0---0-2----------------------0---0-2----0--0--0--2-----0--|
A|--2-2---2-----0-----0---0-2------2---2------2------------0h2----|
E|----------------2-2---2-----1-0---------------------------------|

Guitar 2

e|------5----5/7----5----4----0-|-----5-----5/7-----5----4----4b5r2-------|
B|----3----3------3----3----3---|---3-----3-------3----3----3-------5-3---|
G|--4----4------4----4----4-----|-4-----4-------4----4----4---------------|
D|------------------------------|-----------------------------------------|
A|------------------------------|-----------------------------------------|
E|------------------------------|-----------------------------------------|





Guitar 1 3:10

e|--0--|--0--|--0--|--0--|--2--|--0-0-|--0-0-|--0--| x2 Chorus
B|--0--|--0--|--0--|--0--|--3--|--0-0-|--0-0-|--0--|
G|--4--|--2--|--4--|--1--|--2--|--2-2-|--1-2-|--1--|
D|--4--|--4--|--5--|--2--|--0--|--4-3-|--2-2-|--2--|
A|--2--|--4--|--5--|--2--|-----|--4-3-|--2-2-|--2--|
E|-----|--0--|--3--|--0--|-----|------|------|--0--|



Guitar 1 3:30

e|------------------------------------------------------x-| x4 with guitar 2
B|------------------------------------------------------x-|
G|------2---2-2-------2---2-2--------2---2-2----2--2--2-x-| 4th time, dont 
D|------0---0-2----------------------0---0-2----0--0--0-x-| play dead notes.
A|--2-2---2-----0-----0---0-2------2---2------2---------x-|
E|----------------2-2---2-----1-0-----------------------x-|

Guitar 2

e|--7-7-7-10-10-7-5s7-7-9-12-12-12-x-4-4-4-5-5-4-0-2-4-4-x--|
B|--7-7-7-7--7--7-5s7-7-7-12-12-9--x-3-3-3-3-3-3-3-3-3-3-x--|
G|-------------------------------------------------------x--|
D|-------------------------------------------------------x--|
A|-------------------------------------------------------x--|
E|-------------------------------------------------------x--|

e|--10-10-10-12-12-10-x-12-12-12-14-14-12-x-12-12-12-14-14-12-10-12-10-12--|
B|--10-10-10-10-10-10-x-12-12-12-12-12-12-x-9--9--9--9--9--9--9--9--9--9---|
G|-------------------------------------------------------------------------|
D|-------------------------------------------------------------------------|
A|-------------------------------------------------------------------------|
E|-------------------------------------------------------------------------|

e|--5-5-5-5-5-----------7---------------------------------|
B|--3-3-3-3-3-x-5~-3-5~-7-5-------------------------------|
G|--------------------------7-4p2---2h4-4-2-4-2-----------|
D|--------------------------------4-------------4-2~-0-2--|
A|--------------------------------------------------------|
E|--------------------------------------------------------|

e|--10p7------7p5-------------------------------------------------------------------------|
B|-------10-7-----7-5--10p7---------------------------------------------------------------|
G|--------------------------9-7--9p7------------------------------------------------------|
D|-----------------------------------9-7--9-9-7------------------------6-6/7---9-9-9-9-9--|
A|----------------------------------------------9-7-7-5---7-7b---5h7-9-------9------------|
E|------------------------------------------------------7------7--------------------------|



Guitar 1 4:09

e|--0--|--0--|--0--|--0--|x2  |--2--|--0-0-|--0-0-|--0--|
B|--0--|--0--|--0--|--0--|    |--3--|--0-0-|--0-0-|--0--|
G|--4--|--2--|--4--|--1--|    |--2--|--2-2-|--1-2-|--1--|
D|--4--|--4--|--5--|--2--|    |--0--|--4-3-|--2-2-|--2--|
A|--2--|--4--|--5--|--2--|    |-----|--4-3-|--2-2-|--2--|
E|-----|--0--|--3--|--0--|    |-----|------|------|--0--|

Guitar 1 4:38

e|--0--|--0--|--0--|--0--|--2--|--0-0-|--0-0-|--0--|
B|--0--|--0--|--0--|--0--|--3--|--0-0-|--0-0-|--0--|
G|--4--|--2--|--4--|--1--|--2--|--2-2-|--1-2-|--1--|
D|--4--|--4--|--5--|--2--|--0--|--4-3-|--2-2-|--2--|
A|--2--|--4--|--5--|--2--|-----|--4-3-|--2-2-|--2--|
E|-----|--0--|--3--|--0--|-----|------|------|--0--|




Guitar 1  4:58

with guitar 2 let the last night ring

e|---------------------------------------------------------------------------------------------|
B|---------------------------------------------------------------------------------------------|
G|------2---2-2-------2---2-2--------2---2-2----2--2--2--2-----------2---2-2-------2---2-2-----| 
D|------0---0-2----------------------0---0-2----0--0--0--2-----0-----0---0-2-------------------|
A|--2-2---2-----0-----0---0-2------2---2------2------------0h2---2-2---2-----0-----0---0-2-----|
E|----------------2-2---2-----1-0----------------------------------------------2-2---2-----1-0-|

Guitar 2

e|-----5-----5/7-----5----4----4b5r2-5h7--|
B|---3-----3-------3----3----3------------|
G|-4-----4-------4----4----4--------------|
D|----------------------------------------|
A|----------------------------------------|
E|----------------------------------------|




 
 
Foo Fighters - Stranger Things Have Happened Tab :: indexed at Ultimate Guitar.
Stranger Things Have Happened tabs @ 911Tabs

About the artist behind Stranger Things Have Happened Tab:

Foo Fighters is an American alternative rock band formed by singer/guitarist Dave Grohl in 1995.[1] Grohl formed the group as a one-man project after the dissolution of his previous band Nirvana in 1994. Prior to the release of Foo Fighters in 1995, Grohl drafted Nate Mendel (bass), William Goldsmith (drums), and Pat Smear (guitar) to complete the group. Goldsmith and Smear left after the recording of the group's second album The Colour and the Shape (1997). They were replaced by Taylor Hawkins and Franz Stahl, respectively, although Stahl left prior to the recording of the group's third album, There Is Nothing Left to Lose (1999).

Chris Shiflett joined as the band's second guitarist after the completion of There is Nothing Left to Lose. The band released its fourth album One by One in 2002. The group followed that release with the two-disc In Your Honor (2005), which was split between acoustic songs and harder-rocking material. Foo Fighters released its sixth album Echoes, Silence, Patience & Grace in 2007. Over the course of the band's career, three of its albums have won Grammy Awards for Best Rock Album, and all six have been nominated for Grammys.

Indexed at Wikipedia.

Show us your talent, perform Stranger Things Have Happened Tab!

Here you can post a video or audio performance. Tell me more ...
Where can we find your performance? Tell me more ...
Your comment:
Please, log in to post your performance.