Artists by letter: A B C D E F G H I J K L M N O P Q R S T U V W X Y Z 0-9

 

Wir Bleiben Stumm Tab
Intro:
           D                 F#m                   A                  G
E |------5----------5------------5-----------5-----------5----------5--3-5-3|
H |-3---------3------------2-----------2-----------5-----------5------3-----|
G |----2---2-----2-----2------2-----2-----2-----2-----------2---------------|
D |----------------------------------------------------7-----------7--------|
A |-------------------------------------------------------------------------|
E |-------------------------------------------------------------------------|

1.Strophe:
           D                 F#m                  A                 G
E |------5----------5------------5-----------5-----------5----------5--3-5-3|
H |-3---------3------------2-----------2-----------5-----------5------3-----|
G |----2---2-----2-----2------2-----2-----2-----2-----------2---------------|
D |----------------------------------------------------7-----------7--------|
A |-------------------------------------------------------------------------|
E |-------------------------------------------------------------------------|


          D                 F#m                   Hm                  G
E |------5----------5------------5----------5-----3---5---3--5-----5-7-5---|
H |-3---------3------------2-----------2------------3---3---3--3-5---------|
G |----2---2-----2-----2------2-----2-----2-----2--------------------------|
D |------------------------------------------------------------------------|
A |------------------------------------------------------------------------|
E |------------------------------------------------------------------------|

           D                 F#m                  A                 G
E |------5----------5------------5-----------5-----------5----------5--3-5-3|
H |-3---------3------------2-----------2-----------5-----------5------3-----|
G |----2---2-----2-----2------2-----2-----2-----2-----------2---------------|
D |----------------------------------------------------7-----------7--------|
A |-------------------------------------------------------------------------|
E |-------------------------------------------------------------------------|
Refrain 1:
      D                     A           C                G
E |------------------------------------------------------------------|
H |------------------------------------------------------------------|
G |--7-7-7-7-7-7-7------------------3-3-3-3-3-3-3--------------------|2 mal
D |--7-7-7-7-7-7-7--7-7-7-7-7-7-7---3-3-3-3-3-3-3--3-3-3-3-3-3-3-----|
A |--5-5-5-5-5-5-5--7-7-7-7-7-7-7---5-5-5-5-5-5-5--3-3-3-3-3-3-3-----|
E |-----------------5-5-5-5-5-5-5------------------5-5-5-5-5-5-5-----|
2.Strophe:
 
           D                 F#m                  A                 G
E |------5----------5------------5-----------5-----------5----------5--3-5-3|
H |-3---------3------------2-----------2-----------5-----------5------3-----|
G |----2---2-----2-----2------2-----2-----2-----2-----------2---------------|
D |----------------------------------------------------7-----------7--------|
A |-------------------------------------------------------------------------|
E |-------------------------------------------------------------------------|

          D                 F#m                   Hm                  G
E |------5----------5------------5----------5-----3---5---3--5-----5-7-5---|
H |-3---------3------------2-----------2------------3---3---3--3-5---------|
G |----2---2-----2-----2------2-----2-----2-----2--------------------------|
D |------------------------------------------------------------------------|
A |------------------------------------------------------------------------|
E |------------------------------------------------------------------------|

Refrain 2:
      D                    A              C             G
E |------------------------------------------------------------------|
H |------------------------------------------------------------------|
G |--7-7-7-7-7-7-7------------------3-3-3-3-3-3-3-----------------7--|2 mal
D |--7-7-7-7-7-7-7--7-7-7-7-7-7-7---3-3-3-3-3-3-3--3-3-3-3-3-3-3--7--|
A |--5-5-5-5-5-5-5--7-7-7-7-7-7-7---5-5-5-5-5-5-5--3-3-3-3-3-3-3--5--|
E |-----------------5-5-5-5-5-5-5------------------5-5-5-5-5-5-5-----|

Bridge:
       D   A  C           D       D   A  C           D
E |--2--0-----------3--2--------2--0-----------3--2---------------|
H |--------2--1--3--------3-----------2--1--3--------3------------|
G |---------------------------------------------------------------|
D |---------------------------------------------------------------|
A |---------------------------------------------------------------|
E |---------------------------------------------------------------|

     Hm       A       F#m       G        Hm       A       F#m  G   A
E |--2--------5--------2--------3--------2--------5--------2---3---5---|
H |--3--------5--------2--------3--------3--------5--------2---3---5---|
G |--4--------6--------2--------4--------4--------6--------2---4---6---|
D |--4--------7--------4--------5--------4--------7--------4---5---7---|
A |--2--------7--------4--------5--------2--------7--------4---5---7---|
E |--2--------5--------2--------3--------2--------5--------2---3---5---|

           D                 F#m                  A                 G
E |------5---------5------------5---------5------------5--------5--3-5-3|
H |-3--------3-----------2----------2-----------5----------5------3-----|
G |----2--------2-----------2----------2--------------------------------|
D |-------------------------------------------------7---------7---------|
A |---------------------------------------------------------------------|
E |---------------------------------------------------------------------|

3.Strophe:
           D                 F#m                  A                 G
E |------5---------5------------5---------5------------5--------5--3-5-3|
H |-3--------3-----------2----------2-----------5----------5------3-----|
G |----2--------2-----------2----------2--------------------------------|
D |-------------------------------------------------7---------7---------|
A |---------------------------------------------------------------------|
E |---------------------------------------------------------------------|

         D                 F#m                   Hm                  G
E |------5---------5------------5---------5----3---5---3--5-----5-7-5---|
H |-3--------3-----------2----------2------------3---3---3--3-5---------|
G |----2--------2-----------2----------2-------------------------------|
D |------------------------------------------------------------------------|
A |------------------------------------------------------------------------|
E |------------------------------------------------------------------------|

Refrain 3:
    D      A     C     G
E |------------------------------------------------------------------|
H |------------------------------------------------------------------|
G |--7-7-7-7-7-7-7------------------3-3-3-3-3-3-3-----------------7--|2 mal
D |--7-7-7-7-7-7-7--7-7-7-7-7-7-7---3-3-3-3-3-3-3--3-3-3-3-3-3-3--7--|
A |--5-5-5-5-5-5-5--7-7-7-7-7-7-7---5-5-5-5-5-5-5--3-3-3-3-3-3-3--5--|
E |-----------------5-5-5-5-5-5-5------------------5-5-5-5-5-5-5-----|


Outro:

      D   A  C           D       D   A  C           D
E |--2--0-----------3--2--------2--0-----------3--2---------------|
H |--------2--1--3--------3-----------2--1--3--------3------------|
G |---------------------------------------------------------------| 4 mal
D |---------------------------------------------------------------|
A |---------------------------------------------------------------|
E |---------------------------------------------------------------|

Refrain nicht vollständig! 
Wird Wahrscheinlich demnächst reinestellt!
Außerdem entschuldige ich mich für den scheiß tab den ich vorher reingestellt habe!

 
 
Die Toten Hosen - Wir Bleiben Stumm Tab :: indexed at Ultimate Guitar.
Wir Bleiben Stumm tabs @ 911Tabs

About the artist behind Wir Bleiben Stumm Tab:

Die Toten Hosen is a German punk band from Düsseldorf. They are one of the German-language acts who have enjoyed decades-long mass appeal in Germany.

The band's name literally means "The Dead Trousers" in English, although the phrase "tote Hose" is a German expression meaning "impotent", "lifeless", "boring", or "nothing going on".

Indexed at Wikipedia.

Show us your talent, perform Wir Bleiben Stumm Tab!

Here you can post a video or audio performance. Tell me more ...
Where can we find your performance? Tell me more ...
Your comment:
Please, log in to post your performance.