Artists by letter: A B C D E F G H I J K L M N O P Q R S T U V W X Y Z 0-9

 
Its All About You Tab
-------------------------------------------------------------------------------
			 It's All About You - Daiki Kasho
-------------------------------------------------------------------------------
Tabbed by: Archeo
Email: [email protected] / [email protected]

Tuning: Original song is either in Drop C or E Standard (I got it on E Standard)

http://en.wikipedia.org/wiki/Daiki_Kasho

===============================
| /  slide up
|   slide down
| h  hammer-on
| p  pull-off
| ~  vibrato
| +  harmonic
| x  Mute note
===============================================================================

____________________________
Intro:

1st part

e|----------------------------------------|
B|----------------------------------------|
G|----------------------------------------|
D|----6-----6-----6----6-6----6-6666-6-6--|
A|----6-----6-----6----6-6----6-6666-6-6--|
E|----4-----4-----4----4-4----4-4444-4-4--|
			    (PM------PM)


2nd part (will mostly be used throughout the song)

Rhythm

e|-------------------------------------------------|
B|-------------------------------------------------|
G|---5-5--6-66--8-8-----------------------6-6-6-6--|
D|---5-5--6-66--8-8--6-66----3-3-3--6-66--6-6-6-6--|
A|---3-3--4-44--6-6--6-66----3-3-3--6-66--4-4-4-4--|
E|---3-3--4-44--6-6--4-44----1-1-1--4-44--4-4-4-4--|

Lead

e|-------------------------------------------------|
B|-------------------------------------------------|
G|---3-3--5-55--3-356-5-3-1--3---3--5-55--3-3-5-5--|
D|-------------------------------------------------|
A|-------------------------------------------------|
E|-------------------------------------------------|


____________________________
Verse:

   Repeat 2x (you can leave the root notes to the bassist if you're covering this with a band)
e|--------------------------------------------------------------------------------------|
B|--------------------------------------------------------------------------------------|
G|------------5-55-6-5-------------5-55-6-5--------------5-55-6-5-------------5-55-6-5--|
D|-----8--6-----------------8--6------------------8--6-----------------8--6-------------|
A|-----------------------4---------------------8----------------------------------------|
E|--4---------------------------------------------------------------4-------------------|

  *Repeatedly do this on the 2nd round of the verse in synd with the rythm*
   (h) (p)
e|--11--13-----|
B|-------------|
G|-------------|
D|-------------|
A|-------------|
E|-------------|



Refrain:


Rhythm

e|------------------------------------------------------------------------------|
B|------------------------------------------------------------------------------|
G|------------------------------------------------------------------6-6-66-666--|
D|--8--8---10-10---6--6---8--8---10-10--6--6--x-x-x--8-8-88-888-8/--6-6-66-666--|
A|--6--6---8--8----4--4---6--6---8--8---6--6--x-x-x--8-8-88-888-8/--4-4-44-444--|
E|--6--6---8--8----4--4---6--6---8--8---4--4--x-x-x--6-6-66-666-6/--4-4-44-444--|

Lead

e|------------------------------------------------------------------------------|
B|------------------------------------------------------------------------------|
G|--8/13---10/13---6/13---8/13---10/13--x/13---------3-3-33-333-3/--6-6-66-666--|
D|--8------10------6------8------10-----6------------3-3-33-333-3/--6-6-66-666--|
A|--6/11---8-/11---4/11---6/11---8-/11--6/11---------1-3-11-111-1/--4-4-44-444--|
E|--6------8-------4------6------8------4---------------------------------------|


Chorus:


Rhythm

e|-------------------------------------------------|
B|-------------------------------------------------|
G|---5-5--6-66--8-8-----------------------6-6-6-6--|
D|---5-5--6-66--8-8--6-66----3-3-3--6-66--6-6-6-6--|
A|---3-3--4-44--6-6--6-66----3-3-3--6-66--4-4-4-4--|
E|---3-3--4-44--6-6--4-44----1-1-1--4-44--4-4-4-4--|

Lead

e|-------------------------------------------------------|
B|-------------------------------------------------------|
G|---5-13-6-13--8-13---12/13-x/-13-x/-13-6/12/13-/15/17--|
D|---5----6-----8----6-------3------6-----6--------------|
A|---3-11-4-11--6-11-6-10/11-3/-11-6/-11-4/10/11-/13/15--|
E|-------------------4-------1------4--------------------|

Repeat this (Verse, Refrain, and Chorus) one last time then proceed to Interlude


__________________________
Interlude (Clean part)

1st part

				Repeat 2x then change C# to Ab and Eb to Bb
e|---------------------------------------------------------|-------------------------------|
B|---------------------------------------------------------|-------------------------------|
G|---------------------------------------------------------|-------------------------------|
D|--3-33-3-333--66-666-66-666--6-666-6-666--8-88-888-8-88--|---6-666-6-666--8-88-888-8-88--|
A|--3-33-3-333--66-666-66-666--4-444-4-444--6-66-666-6-66--|---6-666-6-666--8-88-888-8-88--|
E|--1-11-1-111--44-444-44-444--4-444-4-444--6-66-666-6-66--|---4-444-4-444--6-66-666-6-66--|

   (h) (p) Repeatedly do this until you get to the beginning of the 2nd part
e|--11--13-----|
B|-------------|
G|-------------|
D|-------------|
A|-------------|
E|-------------|


2nd part


e|---------------------------------------------------------------------|
B|---------------------------------------------------------------------|
G|------8-------8-------8-------8-------8-------8-------8-------8------|
D|----6---6---6---6---6---6---6---6---6---6---6---6---6---6---6---6----|
A|--3-------4-------6---------------8---------------4-------4----------|
E|--------------------------4---------------4--------------------------|

					   (start to kick some drive on this part)
e|-------------------------------------------------------------------------|
B|-------------------------------------------------------------------------|
G|------8-------8-------8-------8-------8-------8---8---8-8--88-8888-8-8---|
D|----6---6---6---6---6---6---6---6---6---6---6---6-6---6-6--66-6666-6-6---|
A|--3-------4-------6---------------8---------------4---4-4--44-4444-4-4---|
E|--------------------------4---------------4-------4----------------------|



___________________
Chorus:


Rhythm

e|-------------------------------------------------|
B|-------------------------------------------------|
G|---5-5--6-66--8-8-----------------------6-6-6-6--|
D|---5-5--6-66--8-8--6-66----3-3-3--6-66--6-6-6-6--|
A|---3-3--4-44--6-6--6-66----3-3-3--6-66--4-4-4-4--|
E|---3-3--4-44--6-6--4-44----1-1-1--4-44--4-4-4-4--|

Lead

e|-------------------------------------------------------|
B|-------------------------------------------------------|
G|---5-13-6-13--8-13---12/13-x/-13-x/-13-6-12/13-/15/17/-|
D|---5----6-----8----6-------3------6----6---------------|
A|---3-11-4-11--6-11-6-10/11-3/-11-6/-11-4-10/11-/13/15/-|
E|-------------------4-------1------4--------------------|


____
Outro

Rhythm

e|-------------------------------------------------|
B|-------------------------------------------------|
G|---5-5--6-66--8-8-----------------------6-6-6-6--|
D|---5-5--6-66--8-8--6-66----3-3-3--6-66--6-6-6-6--|
A|---3-3--4-44--6-6--6-66----3-3-3--6-66--4-4-4-4--|
E|---3-3--4-44--6-6--4-44----1-1-1--4-44--4-4-4-4--|

Lead

e|-------------------------------------------------|
B|-------------------------------------------------|
G|---3-3--5-55--3-356-5-3-1--3---3--5-55--3-3-5-5--|
D|-------------------------------------------------|
A|-------------------------------------------------|
E|-------------------------------------------------|
      *Repeat 2x


      *Do this with slight overdrive/distortion*

e|---------------------------------------------------------------------|
B|---------------------------------------------------------------------|
G|------8--8----8--8----8--8----8--8----8--8----8--8----8--8----8--8---|
D|----6---6---6---6---6---6---6---6---6---6---6---6---6---6---6---6----|
A|--3-------4-------6---------------8---------------4-------4----------|
E|--------------------------4---------------4--------------------------|

e|-------------------------------------------------------------------------|
B|-------------------------------------------------------------------------|
G|------8-------8-------8-------8-------8-------8---8---8-8--88-8888-8-8---|
D|----6---6---6---6---6---6---6---6---6---6---6---6-6---6-6--66-6666-6-6---|
A|--3-------4-------6---------------8---------------4---4-4--44-4444-4-4---|
E|--------------------------4---------------4-------4----------------------|


 
 
Daiki Kasho - Its All About You Tab :: indexed at Ultimate Guitar.
Its All About You tabs @ 911Tabs
People who played Daiki Kasho - Its All About You Tab also played these songs by Daiki Kasho:
Its All About You Tab, Soul Surfer Chords, Its All About You, Its All About You, Soul Surfer

Quick tip, so you can enjoy Its All About You Tab even more:

After the registration (which takes just 10 seconds, remember?) you will be able to use your profile - your very own piece of YourChords.com.

Show us your talent, perform Its All About You Tab!

Here you can post a video or audio performance. Tell me more ...
Where can we find your performance? Tell me more ...
Your comment:
Please, log in to post your performance.