Artists by letter: A B C D E F G H I J K L M N O P Q R S T U V W X Y Z 0-9

 
You Want It You Got It Tab
Key:
p = pull off
h = hammer on
b = bend
/ = slide

Intro:
-----------------------------------------------------------------|
-----------------------------------------------------------------|
-----------------------------------------------------------------|
--9-9-9-9---7-7-7-7---6-6-6-6---4-4-4-4--------9-9-9-9---7-7-7-7-|
--9-9-9-9---7-7-7-7---6-6-6-6---4-4-4-4--------9-9-9-9---7-7-7-7-|
--7-7-7-7---5-5-5-5---4-4-4-4---2-2-2-2--3-5---7-7-7-7---5-5-5-5-|

-----------------------------------------------------------------|
-----------------------------------------------------------------|
-----------------------------------------------------------------|
--6-6-6-6---4-4-4-4----------------------------------------------|
--6-6-6-6---4-4-4-4----------------------------------------------|
--4-4-4-4---2-2-2-2----------------------------------------------|


Main Riff:
-----------------------------------------------------------------|
-----------------------------------------------------------------|
--x-x-9--x-x-9---x-x-4--x-x-4---x-x-7--x-x-7---x-x-4-4-4-4-4-4---|
--x-x-9--x-x-9---x-x-4--x-x-4---x-x-7--x-x-7---x-x-4-4-4-4-4-4---|
--x-x-7--x-x-7---x-x-2--x-x-2---x-x-5--x-x-5---x-x-2-2-2-2-2-2---|
-----------------------------------------------------------------|

This is the part opening up to the chorus.It comes up once or twice in
the song.

--------------------|
--------------------|
--------------------|
--9---7---6---4-----|
--9---7---6---4-----|
--7---5---4---2-----|

Chorus:
-----------------------------------------------------------------|
-----------------------------------------------------------------|
-----------------------------------------------------------------|
--7-7-7/9-9-9--9/7--9/7--9-9-9/11-11-11--11/9--11/9--------------|
--5-5-5/7-7-7--7/5--7/5--7-7-7/9--9--9---9/7---9/7---------------|
___________________________________________________________________________
Note:
The last part of the solo is kind of tricky.
Keep in mind that the end of the solo is in triplets,
so avoid doing this:

-----------
-10h12p10p9
-----------|
-----------|
-----------|
-----------|
______________________________________________________________________________

Solo:
--------------------------------------------------------------------|
--------------------------------------------------------------------|
---------------------------------------------10---------------10h12-|
--9bbb--9p7--------------6--------------8h10----10-8-----10h12------|
------------9p7------6h8---8-6-----8h10--------------10-------------|
-----------------6h8-----------8------------------------------------|

--------------------------------------------------------------------|
--12b-10h12p9-9h11p8-8h10p7-7h9p6-6h8p5-5h7p4-4h6p3-3h5p2-2h4p1-1h3-|
--------------------------------------------------------------------|
--------------------------------------------------------------------|
--------------------------------------------------------------------|
--------------------------------------------------------------------|

-------------------------------------------------------------------|
p1-----------------------------------------------------------------|
---1h3p1-----------------------------------------------------------|
---------1h3p1-----------------------------------------------------|
----------------1h3p1p0--------------------------------------------|
-------------------------------------------------------------------|

After this, you just repeat the chorus and the song is pretty much over.

 
 
Bryan Adams - You Want It You Got It Tab :: indexed at Ultimate Guitar.
You Want It You Got It tabs @ 911Tabs

About the artist behind You Want It You Got It Tab:

Bryan Adams OC, OBC,[1] (born Bryan Guy Adams on November 5, 1959)[2][3][4] is a Canadian rock singer-songwriter, musician and photographer. Some of his best-known albums are Reckless, 18 til I Die, and Waking Up the Neighbours. Adams has been nominated three times for Academy Awards for his songwriting in films.[5]

Indexed at Wikipedia.

Show us your talent, perform You Want It You Got It Tab!

Here you can post a video or audio performance. Tell me more ...
Where can we find your performance? Tell me more ...
Your comment:
Please, log in to post your performance.