Artists by letter: A B C D E F G H I J K L M N O P Q R S T U V W X Y Z 0-9

You Give Love A Bad Name Tab (ver 5) - Bon Jovi


 
You Give Love A Bad Name Tab
this is one of the best songs EVER and judging by todays music it'l keep firmly where it
to basshunter...you give music a bad name!

Key
____
h - hammer on
p - pull of
/ - slide
v - vibrato
b - bend note
. - mute note slightly
x - very muted note
() - optional, quiet or less obviouse
x/ - pick slide


INTRO

there's not a single correct tab for this bit yet!
 i dont think he pulls of to these notes but it sounds much better
               | | |
               v v v
e|-------------------------------------------------|
B|-10b-8b--(6)-8p7p6--------------10-8-(6)-10p9-9b-|
G|-------------------9b----(10-8)------------------|
D|-------------------------------------------------|
A|-------------------------------------------------|
E|-------------------------------------------------|
  |        ^            |
  |        |            |
 repeat this bit then...
e|-------------------|
B|---------10b-8b----|
G|-(10-8)------------|
D|-------------------|
A|-------------------|
E|-------------------|


RIFF 1

this bit here's very similar to matiusus tab i just split it up a bit so it was easier
work out and i added the fact that it was muted, i also corrected the ending.
e|------------------------------------------------------------------------|
B|------------------------------------------------------------------------|
G|------------------------------------------------------------------------|
D|-----------1-1----------------1-1-------------------1-1-----------------|
A|-3---1-3-------3-1---3---1-3-------3v-----3---1-3-------3-1---3-4-3-5v--|
E|---3-------------------3--------------------3---------------------------|
   . . . .   . . . .   . . . .  . .         . . . .   . . . .  (. . .)


RIFF 2

this bits always wrong too! this bit has a much queiter guitar part then the rest, same
the chorus.

let these notes ring for longer
                |     |                                      |    |
                v     v                                      v    v
e|-------------------------------------------------------------------------|
B|-------------------------------------------------------------------------|
G|-----------------------------9-9\7-9b9b9b9b-----------------------------|
D|--5---5--5----5-----3--------------------------3---3--3----3----5--------|
A|--5---5--5----5-----3--------------------------3---3--3----3----5--------|
E|--3---3--3----3-----1--(\)--------------------1---1--1----1----3--------|
  'woohooho' your a loaded gun                   'woohoho' nowhere to run

e|-------------------------------------------------------------------------|
B|-------------------------------------------------------------------------|
G|-------------------------------------------------------------------------|
D|---------------------------5---5---5---5---------------------------------|
A|---------------------------5---5---5---5---------------------------------|
E|---------------------------3---3---3---3---------------------------------|
...no-one can save me - the  damage is done!

CHORUS

remember this parts a lot queter than the rest so you can hear the awsome singing...
e|-------------------------------------------------------------------------|
B|-------------------------------------------------------------------------|
G|-5-------------------------------------3---------------------------------|
D|-5-----(x)---------5-------5-(x)-3-----3----(x)---3-----------5----------|
A|-3-----(x)---------5-------5-(x)-3-----1----(x)---3-----------5----------|
E|-------------------3-------3-----1----------------1-----------3----------|
  shot through the heart, your to blame  you give lo..ve a bad name

e|-----------------------------------------------------------------------|
B|-----------------------------------------------------------------------|
G|-5-----------------------------------3---------------------------------|
D|-5-----(x)-------5-------5-(x)-3-----3----(x)---3-----------5----------|
A|-3-----(x)-------5-------5-(x)-3-----1----(x)---3-----------5----------|
E|-----------------3-------3-----1----------------1-----------3----------|
    i played my part, you played  v   you give lo..ve a bad name
                               your game

let ring  |
          v
e|-------------------------------------------------|
B|-------------------------------------------------|
G|-5-----------------------------------------------|
D|-5-(x)--5----------------------------------------|
A|-3-(x)--5----------------------------------------|
E|--------3----------------------------------------|
you give love...  a bad name


SOLO

this first note goes for a while, it bends down but if you don't have a whammy bar (like
you have to bend it loads then slowly straighten it after its been picked. btw this is
the video version (i think there different)
    |
    v
e|-------------------------------------------|
B|--10b------15-------------4-4--5-5--66--7b-|
G|-------------------------------------------|
D|-------------------------------------------|
A|-------------------------------------------|
E|-------------------------------------------|

the fast (awesome) (hard) bit, basicly you just tap 8h11p8h11p8...with your left hand
your normal) and slide your pick downwards from about 19th to 12th fret at an increesing speed...
it goes something like this i play it slightly differently every time...
e|--------------------------------------------|
B|-8h11p8-x-8h11-x--x-8h11p8h11-x-8h11b---|
G|--------------------------------------------|
D|--------------------------------------------|
A|--------------------------------------------|
E|--------------------------------------------|

bend these massively...
e|-------------|
B|-14b---16b---|
G|-------------|
D|-------------|
A|-------------|
E|-------------|

i think this bit is slighly muted, and it speeds up as it gets higher...
the hammer on and pull offs are all optional, i prefere to tremolo pick it instead...
e|-------------------------------------------------|
B|-------------------------------------------------|
G|------------------------------------10h12p10b(v)-|
D|-------------8h10p8----------9h11p9--------------|
A|-------7h9p7----------8h10p8---------------------|
E|-6h8p6-------------------------------------------|
   . . . . . . .  . .   .  . . .  . .  . .  .

                                             ^
                                             |
your not realy meant to hold this note but i think it's better if you do


OUTRO

very similar to the bigining, i think it does it twice before the guitar restarts...
e|-------------------------------------------------------------------------|
B|-------------------------------------------------------------------------|
G|-5-------------------------------------3---------------------------------|
D|-5-----(x)---------5-------5-(x)-3-----3----(x)---3-----------5----------|
A|-3-----(x)---------5-------5-(x)-3-----1----(x)---3-----------5----------|
E|-------------------3-------3-----1----------------1-----------3----------|
  shot through the heart, your to blame  you give lo..ve a bad name

e|-----------------------------------------------------------------------|
B|-----------------------------------------------------------------------|
G|-5-----------------------------------3---------------------------------|
D|-5-----(x)-------5-------5-(x)-3-----3----(x)---3-----------5----------|
A|-3-----(x)-------5-------5-(x)-3-----1----(x)---3-----------5----------|
E|-----------------3-------3-----1----------------1-----------3----------|
    i played my part, you played  v   you give lo..ve a bad name
                               your game

e|-------------------------------------------------|
B|-------------------------------------------------|
G|-5-----------------------------------------------|
D|-5-(x)--5----------------------------------------|
A|-3-(x)--5----------------------------------------|
E|--------3----------------------------------------|
you give love...  a bad name wohoho whohohoho whohoho...

e|-------------------------------------------------|
B|-------------------------------------------------|
G|-5-----------------------------------------------|
D|-5-(x)--5----------------------------------------|
A|-3-(x)--5----------------------------------------|
E|--------3----------------------------------------|
you give love...  a bad name
  wohoho whohohoho whohoho...

e|-------------------------------------------------|
B|-10b-8b--(6)-8p7p6--------------10-8-(6)-10p9-9b-|
G|-------------------9b----(10-8)------------------|
D|-------------------------------------------------|
A|-------------------------------------------------|
E|-------------------------------------------------|
   wohoho  whohohoho ho     woho  wohoho wohohohoho


fading out...


e|-------------------------------------------------|
B|-10b-8b--(6)-8p7p6--------------10-8-(6)-10p9-9b-|
G|-------------------9b----(10-8)------------------|
D|-------------------------------------------------|
A|-------------------------------------------------|
E|-------------------------------------------------|
   wohoho  whohohoho ho     woho  wohoho wohohohoho
 |        ^            |
  |        |            |
 repeat this bit then...
e|-------------------|
B|---------10b-8b----|
G|-(10-8)------------|
D|-------------------|
A|-------------------|
E|-------------------|
   woho wohoho

 
 
Bon Jovi - You Give Love A Bad Name Tab :: indexed at Ultimate Guitar.
You Give Love A Bad Name tabs @ 911Tabs

About the artist behind You Give Love A Bad Name Tab:

Jon Bon Jovi (born John Francis Bongiovi, Jr. on March 2, 1962) is an American musician, songwriter and actor. As lead singer and founder of the rock band Bon Jovi, he has sold over 120 million albums worldwide.[1] He is also the owner of an Arena Football League team, the Philadelphia Soul.

Indexed at Wikipedia.

Show us your talent, perform You Give Love A Bad Name Tab!

Here you can post a video or audio performance. Tell me more ...
Where can we find your performance? Tell me more ...
Your comment:
Please, log in to post your performance.