Artists by letter: A B C D E F G H I J K L M N O P Q R S T U V W X Y Z 0-9

Close Your Eyes Its Okay To Rest Now Tab (ver 2) - Before Their Eyes


 
Close Your Eyes Its Okay To Rest Now Tab
Close Your Eyes Its Okay to Rest Now
Before their Eyes
S/T
Half Step Dropped
Db Ab Gb Db Gb eb

This is just a quick run-down of the song, no one has attempted a tab yet that i'm aware 
Probably my favorite on their S/T.

|----------------------------------------|
|----------------------------------------|
|----------------------------------------|
|-------------------------------0--------| pickslide (x1)
|--7-7h8p7--7-7-7h8p7--7-7-7h8p7--77-7h8-|
|-0-------7----------10------------------|


repeat until 0:20

|------------------------------------|
|------------------------------------|
|-6----------------------------------|
|-x-(x6)0------0------0------0-------|
|-4-----0---00-0---00-0---00-0-1-0---|
|-------0---00-0---00-0---00-0----p5-|
            ..     ..     ..

verse :29
|-----------------|
|-----------------|
|-----------------|
|-----------------|
|----1---1--------|
|-000-000-5p0-3p0-|


|-------------------|
|-------------------|
|-------------------|
|-------------------|
|----1---1/31p0----|
|-000-000-------5p0-|

:39
|-----------------|
|-----------------|
|-----------------|
|-000-8p0-7p0-3p0-|
|-000-8p0-7p0-3p0-|
|-000-8p0-7p0-3p0-|


chorus (Chords) (strumming not shown)

|-----------|
|-----------|
|-----------|
|-5-----7-8-|
|-5-----7-8-|
|-5-----7-8-|

pretty much the rest of this song looks like this

open note hardcore dance two step extravaganza part

|---0-|
|---4-|
|-----| strumming not shown
|-0---|
|-0---|
|-0---|


pretty part

|---1-1---1-1-----|
|--3-3-3-3-3-3----|
|-3-----3---------|
|---------------0-|
|---------------0-|
|---------------0-|


then back to open notes and the chorus!!

 
 
Before Their Eyes - Close Your Eyes Its Okay To Rest Now Tab :: indexed at Ultimate Guitar.
Close Your Eyes Its Okay To Rest Now tabs @ 911Tabs
People who played Before Their Eyes - Close Your Eyes Its Okay To Rest Now Tab also played these songs by Before Their Eyes:
Start With Today Chords, New Kids In Town Tab, Start With Today Chords, Because 7 Ate 9 Tab, Nighttime Is Our Time Tab, Sing To Me Chords

About the artist behind Close Your Eyes Its Okay To Rest Now Tab:

Before Their Eyes is a Christian post-hardcore band from Findlay, Ohio, USA. They are currently signed to Rise Records. All members of the band are Christian[1], and their religion has influenced their music and lyrics. The name Before Their Eyes is taken from Romans 3:18 of the New Testament ("There is no fear of God before their eyes").[2] Before Their Eyes are currently touring across the USA in the Artery Foundation "Across The Nation" tour with A Skylit Drive and Four Letter Lie. They will also be playing alongside other bands including Memphis May Fire, Blinded Black, Dance Gavin Dance, Oh, Sleeper and The Hottness. In a blog posted on their mySpace on February 25, 2008, the band revealed that they are to start writing their next album on April 22. The band has postponed recording their new album entitled The Dawn of My Death to head out on the "Scream The Prayer Tour" this year with Here I Come Falling, AGRACEFUL, AKissForJersey, Blessed by a Broken Heart and Impending Doom.[3]

Indexed at Wikipedia.

Show us your talent, perform Close Your Eyes Its Okay To Rest Now Tab!

Here you can post a video or audio performance. Tell me more ...
Where can we find your performance? Tell me more ...
Your comment:
Please, log in to post your performance.