Artists by letter: A B C D E F G H I J K L M N O P Q R S T U V W X Y Z 0-9

 
Lullabies Tab
Basically everyone is asking for this tab on my youtube account cause the only ones they
find are the intro. Past the intro I learned this song by ear. If you wanna watch my 
of me playing this at a local coffee house here is it: http://www.youtube.com/watch?v=LFC45DugiP0

All time low is one of my favorite bands and this is my all time favorite song from them.

Through out the song feel free to leave the high e and the b strings open for a fuller 
(works best when playing acoustic).

Intro/Bridge
e|-----------------|
B|-----------------|
G|----8-----13-----|	X 4
D|----9-x8--14-x8--|
A|----7-----12-----|
E|-----------------|

Verse
e|------------------------------|
B|------------------------------|
G|----8-----8-----13-----13-----|    X 4
D|----9-x6--9-x8--14-x6--14-x8--|
A|----7-----7-----12-----12-----|
E|------------------------------|

listen to the song for the strumming patterns

Chorus
e|--------------------|
B|--------------------|
G|----8--------2------|
D|----9-x12----2-x12--|
A|----7--------0------|
E|--------------------|

e|---------------------------------|
B|---------------------------------|
G|----8--------2-------1-----2-----|
D|----9-x12----2-x6----2-x3--4-x3--|
A|----7--------0-------0-----0-----|
E|---------------------------------|

e|--------------------|
B|--------------------|
G|----8--------2------|
D|----9-x12----2-x12--|
A|----7--------0------|
E|--------------------|

e|----------------------------------------------|
B|----------------------------------------------|
G|----8---------14------13------11------9-------|
D|----9-x12-----X--x4---X--x4---X--x4---X--x4---|
A|----7---------12------11------9-------7-------|
E|----------------------------------------------|

Intro/Bridge (only x2)
Verse (still x4)

Post Chorus (note: i played in drop d in the video)

e|---------------------------|
B|---------------------------|
G|----x-------x------x-------|   x2
D|----4-------6------7-------|
A|----4-x10---6-x2---7-x20---|
E|----2-------4------5-------|

Chorus
Intro/Bridge x4 (sing me to sleep.. etc.)
Last Chorus(faster)
Verse x2 (hold last chord, don't strum)

Lyrics
Make it a sweet, sweet goodbye -
It could be for the last time and it's not right.
"Don't let yourself get in over your head," he said.
Alone and far from home I'll find you...

Dead - Like a candle you burned out;
Spill the wax over the spaces left in place of angry words.
Scream - To be heard, like you needed any more attention;
Throw the bottle, break the door, and disappear.

Sing me to sleep,
I'll see you in my dreams
Waiting to say, "I miss you. I'm so sorry."

Forever's never seemed so long;
Cause when you're not around it's like a piece of me is missing.
I could have learned so much from you,
But what's left now?
Don't you realize you showed this family a world of pain?
Can't you see there could have been a happy ending we let go?

Sing me to sleep,
I'll see you in my dreams,
Waiting to say, "I miss you. I'm so sorry."

Sing me to sleep,
Sing me to sleep,
Sing me to sleep,
Sing me to sleep.

Sing me to sleep (You've taken so much with you)
I'll see you in my dreams, (But left the worst with me),
Waiting to say, "I miss you. I'm so sorry. I'm sorry, I'm sorry, I'm sorry."

 
 
All Time Low - Lullabies Tab :: indexed at Ultimate Guitar.
Lullabies tabs @ 911Tabs

About the artist behind Lullabies Tab:

All Time Low is an American pop-punk band from Lutherville-Timonium, Maryland.

Indexed at Wikipedia.

Show us your talent, perform Lullabies Tab!

Here you can post a video or audio performance. Tell me more ...
Where can we find your performance? Tell me more ...
Your comment:
Please, log in to post your performance.