Artists by letter: A B C D E F G H I J K L M N O P Q R S T U V W X Y Z 0-9

 
Sing A Song Tab
Artist: Third Day
Title: Sing a Song
Tuning: Standard
Tabbed By: TLG9289

- Intro -
 Gtr.1 (dist.)
|--------------------------------|
|--------------------------------|
|-6------------------------------|
|-7- [let ring] -----------------|
|-7------------------------------|
|-5------------------------------|
|Gtr.2 (dist.)                   |
|--------------------------------|
|--------------------------------|
|-9------------------------------|
|-x- [let ring] -----------------|
|-7------------------------------|
|-5------------------------------|

-Verse-
 Gtr.1 (dist.)
|--------------------------------|--------------------------------|
|--------------------------------|--------------------------------|
|--------------------------------|--------------------------------|
|---7--9r--9h11~--11h12p11p9(7)-|---7--9r--9h11~--11h12p11~~~~~~~|
|--------------------------------|--------------------------------|
|-5------------------------------|-5------------------------------|
| *                                *                              | [3x]
|Gtr.2 (dist.)                                                    |
|--------------------------------|--------------------------------|
|--------------------------------|--------------------------------|
|--------------------------------|-99999--------------------------|
|-[mute Gtr.2 from last note]----|-xxxxx [let the last note ring] |
|--------------------------------|-77777--------------------------|
|--------------------------------|-55555--------------------------|

- Chorus -
 Gtrs.1&2 [dist.]
|-----------------------------------------------------------------|
|-----------------------------------------------------------------|
|-7---------------6---------------9---------------6---------------|
|-7---------------7---------------9---------------7---------------|
|-5--------------7---------------7---------------7---------------|
|-5---------------5---------------7---------------5---------------|
                                                  Gtr.2 only
|------------------------------------------------|----------------|
|------------------------------------------------|----------------|
|-7---------------11--------------9-------7------|6---------------|
|-7---------------11--------------9-------7------|7-- [let ring] -|
|-5---------------9---------------7-------5------|7--- [through] -|
|-5---------------9---------------7-------5------|5---------------|

- Verse - (Gtr.1 only) [1x]

- Verse 2 -
 Gtr.1[clean]
|-5------------777---------------|-5------------777---------------|
|-5------------777---------------|-5------------777---------------|
|-6------------777---------------|-6------------777---------------|
|-7------------777---------------|-7------------777---------------|
|-7------------------------------|-7------------------------------|
|-5------------------------------|-5------------------------------|
|Gtr.2 [dist.]                                                    | [4x]
|--------------------------------|--------------------------------|
|--------------------------------|--------------------------------|
|--------------------------------|-99999--------------------------|
|--------------------------------|-xxxxx [let the last note ring] |
|--------------------------------|-77777--------------------------|
|--------------------------------|-55555--------------------------|

- Chorus - [1x]

- Solo - [dist.] (I'm guessing and improvising a lot)
                Gtr.1 plays Verse
  |---------------- Gtr.2 plays ----------------||----------------- Gtr.1 plays -----------------|
|-------------------------------------------------------------------------------------------------|
|-8~r7~~-8~r7~~-7br75-8/101010108-8/101010105-8h10p8---------8h10p8---------8h10p8-------------|
|-9~r7~~-9~r7~~-7br75-9/111111119-9/111111115-9-----h9p7-----9-----h9p7-----9-----h9p7---------|
|----------------------------------------------------------h10p7----------h10p7----------h10p7-7~-|
|-------------------------------------------------------------------------------------------------|
|-------------------------------------------------------------------------------------------------|
                                                 |--------------- Roll pick this ----------------|
- Break -

- Verse - (Gtr.1 only) [1x]

-Chorus 3-
 Gtrs.1&2
|-----------------------------------------------------------------|
|-----------------------------------------------------------------|
|-7---------------6---------------9---------------6---------------|
|-7---------------7---------------9---------------7---------------|
|-5--------------7---------------7---------------7---------------|
|-5---------------5---------------7---------------5---------------|

|-----------------------------------------------------------------|
|-----------------------------------------------------------------|
|-7---------------11--------------9-------7-------6---------------|
|-7---------------11--------------9-------7-------7---------------|
|-5--------------9---------------7-------5-------7---------------|
|-5---------------9---------------7-------5-------5---------------|

|-----------------------------------------------------------------|
|-----------------------------------------------------------------|
|-7---------------6---------------9---------------6---------------|
|-7---------------7---------------9---------------7---------------|
|-5--------------7---------------7---------------7---------------|
|-5---------------5---------------7---------------5---------------|

|-----------------------------------------------------------------|
|-----------------------------------------------------------------|
|-7---------------11--------------9-------7-----------------------|
|-7---------------11--------------9-------7-----------------------|
|-5---------------9---------------7-------5-----------------------|
|-5---------------9---------------7-------5-----------------------|

- Verse - (Gtr.1 only) [1x]

- Break -

(Holy, Holy,) part
|-----------------------------------------------------------------|
|-----------------------------------------------------------------|
|-6-6-6-6-6-6-6-6-11111111111111119-9-9-9-9-9-9-9-7-7-7-7-7-7-7-7-|
|-7-7-7-7-7-7-7-7-11111111111111119-9-9-9-9-9-9-9-7-7-7-7-7-7-7-7-|
|-7-7-7-7-7-7-7-7-9-9-9-9-9-9-9-9-7-7-7-7-7-7-7-7-5-5-5-5-5-5-5-5-|
|-5-5-5-5-5-5-5-5-9-9-9-9-9-9-9-9-7-7-7-7-7-7-7-7-5-5-5-5-5-5-5-5-|
with some Riff 1 
[play until the end (I guess; I can't hear much difference at the end of the song)]


 
 
Third Day - Sing A Song Tab :: indexed at Ultimate Guitar.
Sing A Song tabs @ 911Tabs

About the artist behind Sing A Song Tab:

Third Day is a CCM band formed in Marietta, Georgia during the 1990s. The band was founded by lead singer Mac Powell and guitarist Mark Lee. The other band members are Tai Anderson (bass), and David Carr (drums). The band's name is a reference to the biblical account of Jesus rising from the dead on the third day following his crucifixion.

Indexed at Wikipedia.

Show us your talent, perform Sing A Song Tab!

Here you can post a video or audio performance. Tell me more ...
Where can we find your performance? Tell me more ...
Your comment:
Please, log in to post your performance.