Artists by letter: A B C D E F G H I J K L M N O P Q R S T U V W X Y Z 0-9

 
Everything I Ask For Tab
The Maine - Everything I Ask For
Tabbed by: Mitch

If you have any questions:
Email: [email protected]
Myspace: myspace.com/cow_ilunder

Figure out the strumming pattern with video or song
Video: http://www.youtube.com/watch?v=yzo3dwjNrY0
Song:  myspace.com/themaine 

Capo 2nd Fret
Standard Tuning

Intro/Verse
e------------------------------|
G--------1-------3-------------|
B--------0-------0-------------|
D---0h2--2--0h2--2-------------|
A---0h2--3--0h2--3-------------|
E---0-0------------------------|

Pre-Chorus
e------------------------------|
G------3---------3--3----------|
B------0---------0--0----------|
D---2--2---OR----0--2----------|
A---2--3---------2--3----------|
E---0------------3-------------|

Chorus
(has strumming pattern kinda)
e--------x-x-x-x------x-x-x-x------------------|
G--------x-x-x-x------x-x-x-x------------------|
B--------x-x-x-x--5-5-x-x-x-x------------------|
D---2-2--x-x-x-x--5-5-x-x-x-x--5-
A---2-2--x-x-x-x--3-3-x-x-x-x--5-
E---0-0---x-x-x-x------x-x-x-x-3-

Final Verse
e------------------------------|
G------------------------------|
B------5-----------------------|
D---2--5---2--5----------------|
A---2--3---2--5----------------|
E---0------0--3----------------|



 
 
The Maine - Everything I Ask For Tab :: indexed at Ultimate Guitar.
Everything I Ask For tabs @ 911Tabs

Quick tip, so you can enjoy Everything I Ask For Tab even more:

If you spend just 10 seconds to register, you will be able to comment on all the chords and tabs and rate them. You will as well be able to comment on videos of your fellow guitarists and give them ratings from 1 to 5 ... And - of course - you can share your own videos with them and see what they think of you. :)
Click here to join us!

Show us your talent, perform Everything I Ask For Tab!

Here you can post a video or audio performance. Tell me more ...
Where can we find your performance? Tell me more ...
Your comment:
Please, log in to post your performance.