Artists by letter: A B C D E F G H I J K L M N O P Q R S T U V W X Y Z 0-9

 
Propaganda Tab
Song: Propaganda
Artist: Sepultura
Album: Chaos A.D. (1993)
Tuning: down 1/2 step (Eb/Ab/Db/Gb/Bb/eb)

Intro (if you watch this song live, you can see his fingers are shaped in this chord)


***Play Rhythm Figure 1 w/alternate picking***
Rhythm Figure 1 x10
|----------------------|
|--17---17---17---17---|
|o-20---20---20---20--o|
|-(19)-(19)-(19)-(19)--|
|o--------------------o|
|----------------------|
              End Rhythm Figure 1

  W H+
|-----------------------|
|-----------------------|
|-----------------------|
|-----------------------|
|-2----(2)---------547--|
|-0----(0)---------325--|

Rhythm Figure 2
(played really fast)   x3
|-----------------------|
|-----------------------|
|-----------------------|
|-----------------------|
|-----------------54/6-|
|-000000000000000032/4-|
               End Rhythm Figure 2


|---------------------------|
|---------------------------|
|---------------------------|
|---------------------------|
|-----------------54/6-----|
|0000000000000000032/41-|


Verse 1- Rhythm Figure 2 4x


Rhythm Figure 3        x2
|-----------------------|
|-----------------------|
|-----------------------|
|-----------------------|
|-2-8----3-2-3-8--------|
|-0-6----1-0-1-6--------|
                 End Rhythm Figure 3


Verse 2- Repeat Figure 2 2x


Rhythm Figure 4                                    x2
|---------------------------------------------------|
|---------------------------------------------------|
|o--------------------------------------------------|
|----4-3-2------4-3-2------4-3-2--------------------|
|o-2-2-1-0------2-1-0------2-1-0--------------------|
|--0-------0-0-0------0-0-0------0000-00000-4b(1/4)-|
                                      End Rhythm Figure 4


Repeat Rhythm Figure 3 again but on the second time end with this little fill:


||-------||
||-------||
||-------||
||-------||
||-------||
||-21-||


Repeat Rhythm Figure 2


Repeat Rythym Figure 4


BRIDGE
|---------------------------------------------------------------------------|
|---------------------------------------------------------------------------|
|---------------------------------------------------------------------------|
|---------------------------------------------------------------------------|
|---------9-----------109-98-8776--------------------------------------|
|-0-0-0-0-7--0-0-0-0-0-87-76-6554-0-0h1-1-1-1/2-2-2-2/3-3-3-3/4-4-4----|
         NO!                           |--------Heavily palm muted----------|

|---------------------------------------------------------------------|
|---------------------------------------------------------------------|
|---------------------------------------------------------------------|
|---------------------------------------------------------------------|
|-76------------109-98-6776-------------------------------------|
|-54-0-0-0-0-0-0-87-76-8554-0-0h1-1-1-1/2-2-2-2/3-3-3-3/4-4-4---|
                                 |--------Heavily palm muted----------|
SOLO w/wah
|-----------------------------------------------------------------------|
|-0tr5tr0tr5tr0tr5tr0tr5tr0tr5tr0tr5tr0tr5tr0tr5tr0--------------------|
|----------------------------------------------------------------------|
|-------------------------------------------depress bar about 3 steps--|
|-------------------------------------------------------/--------------|
|---------------------------------------------_________/---------------|

|-//15/17--7h8p7h8p7h8p7h8p7h8p7h8p7h8p7--------------------------|
|-//15/17-------------------------------7h8h10p7h8p7-7h8h10p7h8p7-|
|-----------------------------------------------------------------|
|-----------------------------------------------------------------|
|-----------------------------------------------------------------|
|-----------------------------------------------------------------|

|-----------------------------------------------------------------|
|-------------------------------------------10-101010101010-12-13-|
|-4h5h7p4h5p4h5p4---------------------------8--8-8-8-8-8-8--------|
|----------------5p4h5p4h5p4----------------7--7-7-7-7-7-7--------|
|---------------------------5p4h5p4-------------------------------|
|----------------------------------5\0---------------------------|

                                hold bend___|  ___|hold bend
                                              
                                               
                                       full)     )
|-------------------------121212121313----/-----/-----------|
|-11-13-111111111111111111111111111111-5-/55-5-/55----------|
|-------101010101010101010101010101010-7/-77-7/-77----------|
|-------8-8-8-8-8-8-8-8-8-8-8-8-8-8-8----------------77-7p5-|
|---------------------------------------------------7-----7-|
|-----------------------------------------------------------|

|--------------------------------------------------------------------------|
|-17p15p12-17p15p12-12h15-17p15p12-12h15h17-17p15p12-12h15h17-17p15p12-17\|
|--------------------------------------------------------------------------|
|--------------------------------------------------------------------------|
|--------------------------------------------------------------------------|
|--------------------------------------------------------------------------|

BRIDGE #2         x4
|------------------|
|------------------|
|------------------|
|------------------|
|-----------333333-|
|--0-1-0-1-0111111-|

(Guitar 2 plays Rhythm Figure 1 under this):
Rhythm Figure 5        x4
|----------------------|
|----------------------|
|----------------------|
|----------------------|
|-2----2-2--22-22-2----|
|-0----0-0--00-00-0-00-|
                   Rhythm Figure 5

End w/this:
||---||
||---||
||---||
||---||
||-2-||
||-0-||

(pause)

LIES!!
Repeat Rhythm Figure 5

End w/this
||---||
||---||
||---||
||---||
||-9-||
||-7-||

(bass guitar)

|-------------------------------------------------------------|
|-------------------------------------------------------------|
|o-----------------------------------------------------------o|
|-------------------------------------------------------------|
|o-8--2-2-2--8--2-2-2-2-2-2-2-2-7--2-2-2--7--2-2-2-2-2-2-2-2-o|
|--6--0-0-0--6--0-0-0-0-0-0-0-0-5--0-0-0--5--0-0-0-0-0-0-0-0--|

There it is. I accidently deleted this tab while I was working on it so I had to stay up 
1:30 to finish this. This tab was extremely hard to work on because of the thick distortion 
and wah drowned solo so if you have any comments, corrections, or anything... let me know. PEACE

      nolife'tilmetal

 
 
Sepultura - Propaganda Tab :: indexed at Ultimate Guitar.
Propaganda tabs @ 911Tabs

About the artist behind Propaganda Tab:

Sepultura is a Brazilian thrash metal band, formed in 1984.

Their name means "grave" in Portuguese, which they chose after Max Cavalera, one of the founding members, was translating the lyrics of the Motörhead song "Dancing on Your Grave" from their Another Perfect Day album.[4]

Indexed at Wikipedia.

Show us your talent, perform Propaganda Tab!

Here you can post a video or audio performance. Tell me more ...
Where can we find your performance? Tell me more ...
Your comment:
Please, log in to post your performance.