Artists by letter: A B C D E F G H I J K L M N O P Q R S T U V W X Y Z 0-9

 
Hear You Me Tab
by [email protected]
09283150081
shc lucena



tuning = half step down  (eb bb gb db Ab Eb)

Intro-
 E                                     B  
|-------------------------------------|--------------------------------------|
|-9--9--9--9--9--9--9--9--9--9--9--9--|-7--7--7--7--7--7--7--7--7--7--7--7---|
|--9--9--9--9--9--9--9--9--9--9--9--9-|---9--9--9--9--9--9--9--9--9--9--9--9-|
|-------------------------------------|--------------------------------------|
|-------------------------------------|--------------------------------------|
|-------------------------------------|--------------------------------------|
|-------------------------------------|--------------------------------------|

C#m                                    A
|-------------------------------------|-0--0--0--0--0--0--0--0--0--0--0--0---|
|-7--7--7--7--7--7--7--7--7--7--7--7--|--------------------------------------|
|--9--9--9--9--9--9--9--9--9--9--9--9-|---9--9--9--9--9--9--9--9--9--9--9--9-|
|-------------------------------------|--------------------------------------|
|-------------------------------------|--------------------------------------|
|-------------------------------------|--------------------------------------|
d|-------------------------------------|--------------------------------------|

Verse-2x

 E                                     B  
|-------------------------------------|--------------------------------------|
|-9--9--9--9--9--9--9--9--9--9--9--9--|-7--7--7--7--7--7--7--7--7--7--7--7---|
|--9--9--9--9--9--9--9--9--9--9--9--9-|---9--9--9--9--9--9--9--9--9--9--9--9-|
|-------------------------------------|--------------------------------------|
|-------------------------------------|--------------------------------------|
|-------------------------------------|--------------------------------------|
|-------------------------------------|--------------------------------------|

C#m                                    A
|-------------------------------------|-0--0--0--0--0--0--0--0--0--0--0--0---|
|-7--7--7--7--7--7--7--7--7--7--7--7--|--------------------------------------|
|--9--9--9--9--9--9--9--9--9--9--9--9-|---9--9--9--9--9--9--9--9--9--9--9--9-|
|-------------------------------------|--------------------------------------|
|-------------------------------------|--------------------------------------|
|-------------------------------------|--------------------------------------|
|-------------------------------------|--------------------------------------|


Chorus-
 E      B     A     E     B     A       E     B   C#m A   E     B     A
|-0-0-0-0-0-0-0-0-0-0-0-0-0-0-0-0-0-0-|-0-0-0-0-0-0-0-0-0-0-0-0-0-0-0-0-0-0-|
|-0-0-0-0-0-0-0-0-0-0-0-0-0-0-0-0-0-0-|-0-0-0-0-0-0-0-0-0-0-0-0-0-0-0-0-0-0-|
|-1-1-1-4-4-4-2-2-2-1-1-1-4-4-4-2-2-2-|-1-1-1-4-4-6-6-2-2-1-1-1-4-4-4-2-2-2-|
|-2-2-2-4-4-4-2-2-2-2-2-2-4-4-4-2-2-2-|-2-2-2-4-4-6-6-2-2-2-2-2-4-4-4-2-2-2-|
|-2-2-2-2-2-2-0-0-0-2-2-2-2-2-2-0-0-0-|-2-2-2-2-2-4-4-0-0-2-2-2-2-2-2-0-0-0-|
|-0-0-0-------------0-0-0-------------|-0-0-0-------------0-0-0-------------|


Interlude-
E                        B 
|----------------------|-----------------------------|
|------9-9h10-9--------|--9----9-12-10-9-------------|
|-9-11----------9-11---|----11-----------------------|
|----------------------|-----------------------------|
|----------------------|-----------------------------|
|----------------------|-----------------------------|
C#m                       A
|------------------------|-----------------------|
|------9-9h10-9------9---|--------9-10-9-10------|
|-9-11----------9-11---9-|--9--11----------------|
|------------------------|-----------------------|
|------------------------|-----------------------|
|------------------------|-----------------------|


GtrIII
 E                                     B  
|-0--0--0--0--0--0--0--0--0--0--0--0--|--------------------------------------|
|-------------------------------------|-7--7--7--7--7--7--7--7--7--7--7--7---|
|--9--9--9--9--9--9--9--9--9--9--9--9-|---9--9--9--9--9--9--9--9--9--9--9--9-|
|-------------------------------------|--------------------------------------|
|-------------------------------------|--------------------------------------|
|-------------------------------------|--------------------------------------|
|-------------------------------------|--------------------------------------|

C#m                                    A
|-------------------------------------|-0--0--0--0--0--0--0--0--0--0--0--0---|
|-7--7--7--7--7--7--7--7--7--7--7--7--|--------------------------------------|
|--9--9--9--9--9--9--9--9--9--9--9--9-|---9--9--9--9--9--9--9--9--9--9--9--9-|
|-------------------------------------|--------------------------------------|
|-------------------------------------|--------------------------------------|
|-------------------------------------|--------------------------------------|
|-------------------------------------|--------------------------------------|


repeat verse1x
and Chorus-

bridge-
  C#m               B     A
|-0-0-0-0-0-0-0-0-0-0-0-0-0-0-0-0-0-0-0-0-0-0-0-0-0---|
|-0-0-0-0-0-0-0-0-0-0-0-0-0-0-0-0-0-0-0-0-0-0-0-0-0---|
|-6-6-6-6-6-6-6-6-6-4-4-4-2-2-2-2-2-2-2-2-2-2-2-2-2---|
|-6-6-6-6-6-6-6-6-6-4-4-4-2-2-2-2-2-2-2-2-2-2-2-2-2---|
|-4-4-4-4-4-4-4-4-4-2-2-2-0-0-0-0-0-0-0-0-0-0-0-0-0---|
|-----------------------------------------------------|


solo- E  B  A - E  B  A - E  B  C#m A - E  B  A 
|-------------------------------------|--------------------------------------|
|-------------------------------------|--------------------------------------|
|---9~----8--9-9~----9~----8~---------|---9-----8--9-9---/11--/13--13-13-13--|
|-9-----9----------9----9-----9--9----|-9-----9------------------------------|
|-------------------------------------|--------------------------------------|
|-------------------------------------|--------------------------------------|

VERSE- E B c#m A 
do Chorus 2x-

[email protected]

 
 
Paramore - Hear You Me Tab :: indexed at Ultimate Guitar.
Hear You Me tabs @ 911Tabs

About the artist behind Hear You Me Tab:

Paramore (IPA: /'pærəmɔər/) is an American rock band that formed in Franklin, Tennessee in 2004 consisting of Hayley Williams (lead vocals/keyboard), Josh Farro (lead guitar/backing vocals), Jeremy Davis (bass guitar), and Zac Farro (drums). The group released their debut album All We Know Is Falling in 2005, and their second album Riot! in 2007, which was certified gold in the US and the UK.

Indexed at Wikipedia.

Show us your talent, perform Hear You Me Tab!

Here you can post a video or audio performance. Tell me more ...
Where can we find your performance? Tell me more ...
Your comment:
Please, log in to post your performance.