Artists by letter: A B C D E F G H I J K L M N O P Q R S T U V W X Y Z 0-9

 
This Town Tab
--------4------------------------------------------------------|
-----------7---4h5p4-----4---4h5p4------4----------------------|
-4-4-4-----------------6----------------6------6----4----------|
------------------------------------------------------------6--| Repeat X3
---------------------------------------------------------------|
---------------------------------------------------------------|

--------4---------------------------------------------------------|
-----------7---4h5p4-----4---4h5p4------4-------------------------|
-4-4-4-----------------6----------------6------6----4----------4--|
------------------------------------------------------------6-----| Last Time
------------------------------------------------------------------|
------------------------------------------------------------------|

 
 
Oar - This Town Tab :: indexed at Ultimate Guitar.
This Town tabs @ 911Tabs

Quick tip, so you can enjoy This Town Tab even more:

You might want to transpose the song if it is too high or too low for you to sing. Just click the desired option while playing a song and all the chords will automatically be transponded into a new key.

Show us your talent, perform This Town Tab!

Here you can post a video or audio performance. Tell me more ...
Where can we find your performance? Tell me more ...
Your comment:
Please, log in to post your performance.