Artists by letter: A B C D E F G H I J K L M N O P Q R S T U V W X Y Z 0-9

Pirates Of The Caribbean Theme Tab (ver 4) - Misc Soundtrack


 
Pirates Of The Caribbean Theme Tab
k, since I really like this song, here's my attempt of tabbing it ;)
GL & HF!


Intro
e---------------------------------------------------------|
b---------------------------------------------------------|
g-7---7-7---7-7---7-7-7-7-7---7---7-7---7-7---7-7-7-7-7---|
d-7---7-7---7-7---7-7-7-7-7---7---7-7---7-7---7-7-7-7-7---|
a-5---5-5---5-5---5-5-5-5-5---5---5-5---5-5---5-5-5-5-5---|
E---------------------------------------------------------|
  .   . .   . .   . . . . .   .   . .   . .   . . . . .

e--------------------------------|
b--------------------------------|
g-7---7-7---7-7---7-7-7-7-7---7~-|
d-7---7-7---7-7---7-7-7-7-7---7~-|
a-5---5-5---5-5---5-5-5-5-5---5~-|
E--------------------------------|
  .   . .   . .   . . . . .   .


Part A
e-------------------------------------------|
b----------------------8~-------------------|
g/7-7~--7-9-10-10~--10-----9-9~--7------7~~-|
d---------------------------------10-10-----|
a-------------------------------------------|
e-------------------------------------------|

e----------------------------------------|
b----------------------8~----------------|
g/7-7~--7-9-10-10~--10-----9-9~--7---7~~-|
d---------------------------------10-----|
a----------------------------------------|
e----------------------------------------|

e---------------------------------------------|
b----------------------8~--11-11~--10p8h10----|
g/7-7~--7-9-10-10~--10---------------------10-|
d---------------------------------------------|
a---------------------------------------------|
e---------------------------------------------|

e----------------|
b-------8-10-----|
g/10-10------7~~-|
d----------------|
a----------------|
E----------------|

e-----------------------|
b-----------------------|
g/7-10~--9-9~--10-7-9~~-|
d-----------------------|
a-----------------------|
E-----------------------|


Repeat Part A


Part B
e-----------------------------------------------|
b-----------8-10~------------------11~----------|
g/7-9-10-10--------(10)p(7)h(9~)---------10-7~~-|
d-----------------------------------------------|
a-----------------------------------------------|
E-----------------------------------------------|

e------------------------------------------------------------------------------------|
b-----------------10-10-10-11p10~----8--8--8--8h10~----10-10-10-11p10~---/8-6-5------|
g-9~---7~---10~---10-10-10-10-10~----7--7--7--7--7~----10-10-10-10p10~---/9-7-6-7~~--|
d-7~---7~----7~----------------------------------------------------------------------|
a------------------------------------------------------------------------------------|
E------------------------------------------------------------------------------------|


Part C
e------------------------------------------------------------------------|
b----------8-10-8---------8-10-8~-----8-10~--8---------------------------|
g-7-9-10~---------10-9-10----------10----------10-9~--10-9~-7~--9----7~~-|
d-----------------------------------------------------------------10-----|
a------------------------------------------------------------------------|
E------------------------------------------------------------------------|

e---------------------------------------------------------------------|
b---------------8----8~--10-8---------------8-10-11-------------------|
g-7-9-10~--9-10---10----------10-7~--7-9-10---------7~--10-9~--10-9-7-|
d---------------------------------------------------------------------|
a---------------------------------------------------------------------|
E---------------------------------------------------------------------|

e--------------------------------------------------|
b-10~---11~---10-10-10-10p8~---8~---6~-----6-------|
g--9~---10~----9--9--9--9-9~---9~---7~---9---9-7~~-|
d--------------------------------------------------|
a--------------------------------------------------|
E--------------------------------------------------|

e------------------------------------------------|
b-10~---11~---10-10-10-10p8~---8~--6~--5-6-5-----|
g-10~---10~---10-10-10-10p7~---9~--7~--6-7-6-7~~-|
d------------------------------------------------|
a------------------------------------------------|
E------------------------------------------------|


And since there's that one acoustic guitar video on YouTube, here's Part D, which 
isn't in the song...at least not in the versions I heard...w/e


Part D
e----------------------------------------------------------------------------|
b----------10~-----------11~----------10-10-13~--10-8~---8~---6~---5-6-5-----|
g--7--9-10-10~---7--9-10-10~---7-8-10-10-10-10~--10-7~---9~---7~---6-7-6-7~~-|
d----------------------------------------------------------------------------|
a----------------------------------------------------------------------------|
E----------------------------------------------------------------------------|

e----------------------------------------------------------------------------|
b----------10~-----------11~----------10-10-13~--10-8~---8~---6~---5-6-5-----|
g--7--9-10-10~---7--9-10-10~---7-8-10-10-10-10~--10-7~---9~---7~---6-7-6-7~~-|
d----------------------------------------------------------------------------|
a----------------------------------------------------------------------------|
E----------------------------------------------------------------------------|

Finished ;)


For Chinh, my guitar-hero ;)

 
 
Misc Soundtrack - Pirates Of The Caribbean Theme Tab :: indexed at Ultimate Guitar.
Pirates Of The Caribbean Theme tabs @ 911Tabs

Quick tip, so you can enjoy Pirates Of The Caribbean Theme Tab even more:

After the registration (which takes just 10 seconds, remember?) you will be able to use your profile - your very own piece of YourChords.com.

Show us your talent, perform Pirates Of The Caribbean Theme Tab!

Here you can post a video or audio performance. Tell me more ...
Where can we find your performance? Tell me more ...
Your comment:
Please, log in to post your performance.