Artists by letter: A B C D E F G H I J K L M N O P Q R S T U V W X Y Z 0-9

 
Rainbows Tab
-------------------------------------------------------------------------------
Rainbows - Limp Wrist
Thee Official Limp Wrist Discography
-------------------------------------------------------------------------------
Tabbed by: axeslash
Email: [email protected]

Tuning:

Guitar 1:
e|-----------------------------------------------------------------|
B|-----------------------------------------------------------------|
G|-7-7-7-7-7--7-7-7-------------------7-7-7-7-7--7-7-7-------------|
D|-7-7-7-7-7--7-7-7-8--8-8-5--5-5-5-5-7-7-7-7-7--7-7-7-8--8-8-5----|
A|-5-5-5-5-5--5-5-5-8--8-8-5--5-5-5-5-5-5-5-5-5--5-5-5-8--8-8-5----|
E|------------------6--6-6-3--3-3-3-3------------------6--6-6-3----|

Guitars 1 & 2:
e|------------------------------------|
B|------------------------------------|
G|-7-7-7-7-7--7-7-7-------------------|
D|-7-7-7-7-7--7-7-7-8--8-8-5--5-5-5-5-|
A|-5-5-5-5-5--5-5-5-8--8-8-5--5-5-5-5-|
E|------------------6--6-6-3--3-3-3-3-|

Guitars 1 & 2:
e|----------------------------------|
B|----------------------------------|
G|-7-7-7-8--8-8-8-10-10-10-5--5-5-5-|
D|-7-7-7-8--8-8-8-10-10-10-5--5-5-5-|
A|-5-5-5-6--6-6-6--8--8--8-3--3-3-3-|
E|----------------------------------|

Guitars 1 & 2:
e|---------------------------------------------------------------------------|
B|---------------------------------------------------------------------------|
G|-7------------------(nice long guitar pause here)--------------------------|
D|-7-------------------------------------------------------------------------|
A|-5-------------------------------------------------------------------------|
E|---------------------------------------------------------------------------|

Guitars 1 & 2:
e|-------------------------------------------------------------|
B|-------------------------------------------------------------|
G|-7-7-7-7-7--7-7-7-7-7-7-7-7----7-7-7-7-7--7-7-7-7-7-7-7-7----|
D|-7-7-7-7-7--7-7-7-7-7-7-7-7----7-7-7-7-7--7-7-7-7-7-7-7-7----|
A|-5-5-5-5-5--5-5-5-5-5-5-5-5----5-5-5-5-5--5-5-5-5-5-5-5-5----|
E|-------------------------------------------------------------|

Guitars 1 & 2:
e|----------------------------------|
B|----------------------------------|
G|-7-7-7-8--8-8-8-10-10-10-5--5-5-5-|
D|-7-7-7-8--8-8-8-10-10-10-5--5-5-5-|
A|-5-5-5-6--6-6-6--8--8--8-3--3-3-3-|
E|----------------------------------|

Guitars 1 & 2:
e|-------------------------------------|
B|-------------------------------------|
G|-7-7-7-8--8-8-8-10-10-10-5--5-5-5-7--|
D|-7-7-7-8--8-8-8-10-10-10-5--5-5-5-7--|
A|-5-5-5-6--6-6-6--8--8--8-3--3-3-3-5--|
E|-------------------------------------|


| /  slide up
|   slide down
| h  hammer-on
| p  pull-off
| ~  vibrato
| +  harmonic
| x  Mute note
===============================================================================

 
 
Limp Wrist - Rainbows Tab :: indexed at Ultimate Guitar.
Rainbows tabs @ 911Tabs

Quick tip, so you can enjoy Rainbows Tab even more:

After the registration (which takes just 10 seconds, remember?) you will be able to use your profile - your very own piece of YourChords.com.

Show us your talent, perform Rainbows Tab!

Here you can post a video or audio performance. Tell me more ...
Where can we find your performance? Tell me more ...
Your comment:
Please, log in to post your performance.