Artists by letter: A B C D E F G H I J K L M N O P Q R S T U V W X Y Z 0-9

 
Eternity Tab
 - slide

INTRO and VERSE 1-(pluck)
E ---------------------------------------------------------|
B ---------------------------------------------------------|
G --89---9---911---11---1113---13---1314---14----------|
D ---------------------------------------------------------|
A --0-----0---0------0----0-------0----0-------0-----------|
E ---------------------------------------------------------|x4

PRE-CHORUS-(strum)
E ---------------------------------------------------------|
B ---------------------------------------------------------|
G --3----6----3----8---------------------------------------|
D --4----7----4----9---------------------------------------|
A --4----7----4----9---------------------------------------|
E --2----5----2----7---------------------------------------|

CHORUS- (strum)
E ---------------------------------------------------------|
B ---------------------------------------------------------|
G --9----6----6----8---------------------------------------|
D --9----7----6----9---------------------------------------|
A --7----7----4----9---------------------------------------|
E -------5---------7---------------------------------------|x2

VERSE 2-(pluck)
E ---------------------------------------------------------|
B ---------------------------------------------------------|
G --89---9---911---11---1113---13---1314---14----------|
D ---------------------------------------------------------|
A --0-----0---0------0----0-------0----0-------0-----------|
E ---------------------------------------------------------|x3

PRE-CHORUS-(strum)
E ---------------------------------------------------------|
B ---------------------------------------------------------|
G --3----6----3----8---------------------------------------|
D --4----7----4----9---------------------------------------|
A --4----7----4----9---------------------------------------|
E --2----5----2----7---------------------------------------|

CHORUS- (strum)
E ---------------------------------------------------------|
B ---------------------------------------------------------|
G --9----6----6----8---------------------------------------|
D --9----7----6----9---------------------------------------|
A --7----7----4----9---------------------------------------|
E -------5---------7---------------------------------------|x2

BRIDGE-(strum)
E ---------------------------------------------------------|
B ---------------------------------------------------------|
G ---9---6----8--------------------------------------------|
D ---9---7----9--------------------------------------------|
A ---4---7----9--------------------------------------------|
E -------5----7--------------------------------------------|

CHORUS- (strum)
E ---------------------------------------------------------|
B ---------------------------------------------------------|
G --9----6----6----8---------------------------------------|
D --9----7----6----9---------------------------------------|
A --7----7----4----9---------------------------------------|
E -------5---------7---------------------------------------|x4

ENDING-strum)
CHORUS- (strum)
E ---------------------------------------------------------|
B ---------------------------------------------------------|
G ----3----6----8----1-------------------------------------|
D ----4----7----9----2-------------------------------------|
A ----4----7----9----2-------------------------------------|
E ----2----5----7------------------------------------------|


                                  tabbed by JDV

 
 
Jonas Brothers - Eternity Tab :: indexed at Ultimate Guitar.
Eternity tabs @ 911Tabs

About the artist behind Eternity Tab:

The Jonas Brothers are an American pop-rock band from Wyckoff, New Jersey made up of three brothers: Kevin, Joe, and Nick Jonas. They have released two albums - It's About Time in 2006, and Jonas Brothers in 2007, and will release A Little Bit Longer in 2008.

Indexed at Wikipedia.

Show us your talent, perform Eternity Tab!

Here you can post a video or audio performance. Tell me more ...
Where can we find your performance? Tell me more ...
Your comment:
Please, log in to post your performance.