Artists by letter: A B C D E F G H I J K L M N O P Q R S T U V W X Y Z 0-9

 
Life Is Wonderful Tab
OK.....Some people obviously don't listen to the song....Here's how you play it.... put
capo on the first fret and check this out...


VERSE 1
"It takes a crane to build a crane...."
                "it takes two floors to make a story..."

e(-----------------------|------------------|
b(-------3-3------3-3----|-----3-3------3-3-|
g(-------0-0------0-0----|-----0-0------0-0-|
d(-----------------------|------------0-----|
a(--------------0--------|---3-------3------|
E(----3------1-3---------|------------------|
            ^from here 3x            ^from here 3x

e(------------------------|------------------|
b(------------------------|------------------|
g(-------9-9------9-9-----|------------8-8---|
d(-------9-9------9-9-----|----9-9-----9-9---|
a(------7------7-7--------|----9-9-----9-9---|
E(------------------------|---7-----7-7------|
               ^from here 3x        ^from here 3x

Then end on (133211) abrupt & palm-mute and repeat above tab.

Then end on same chord but strum slower ending on F# on 1st string.

Chorus: "Halalalala-lala, life is wonder-ful...."

using same strum pattern repeat 4 times with chorus
e(------------------------|------------------|------------|--------|
b(------------------------|------------------|------------|--------|
g(------5-5---------------|------6-6---------|-----3-3----|----4-4-|
d(------6-6---------------|------6-6---------|-----4-4----|----4-4-|
a(------6-6---------------|----4-------------|-----4-4----|---2----|
E(----4-------------------|------------------|----2-------|--------|

Then end chorus on (133211)
And when he starts humming begin this...8x

e(-------0-0-0-----0-0-0--|
b(-------3-3-3-----3-3-3--|
g(-------0-0-0-----0-0-0--|
d(------------------------|
a(------------------------|
E(----1h3-----1h3---------|

Then using same riff play same chord prgresion as verse.
It's easy....beautiful song....enjoy!!

 
 
Jason Mraz - Life Is Wonderful Tab :: indexed at Ultimate Guitar.
Life Is Wonderful tabs @ 911Tabs

About the artist behind Life Is Wonderful Tab:

Jason Thomas Mraz (pronounced /'dʒeɪsən ˈɱɹæz/; born June 23, 1977) is an American singer-songwriter, born and raised in Mechanicsville, Virginia, a suburb of Richmond.[1]

Mraz is an eclectic artist with multiple and varied stylistic influences, including pop, rock, folk, jazz, country, and hip hop. He has played with various artists, including The Rolling Stones, Bob Dylan, Dave Matthews Band, James Blunt, Gavin DeGraw, Paula Cole, John Popper, Alanis Morissette, The Ohio Players, Rachael Yamagata, Jewel and Colbie Caillat.[citation needed]

Indexed at Wikipedia.

Show us your talent, perform Life Is Wonderful Tab!

Here you can post a video or audio performance. Tell me more ...
Where can we find your performance? Tell me more ...
Your comment:
Please, log in to post your performance.