Artists by letter: A B C D E F G H I J K L M N O P Q R S T U V W X Y Z 0-9

 
Solution Tab
This is just the lead guitar part.

Intro:
e|---------------------------------------------------------|
B|----------5--5--5--4--5-----------4--4--4----------------|
G|-------------------------------------------6--4----------| 
D|-6--4--6-----------------4--4--4-------------------------|
A|---------------------------------------------------------|
E|---------------------------------------------------------|

Pre Chorus:
e|-------------14--------------14--------------14--12--12--11--11--9--9--------|
B|-12--11--12------12--11--12------12--11--12---------------------------11--11-|
G|-----------------------------------------------------------------------------|
D|-----------------------------------------------------------------------------|
A|-----------------------------------------------------------------------------|
E|-----------------------------------------------------------------------------|

Chorus: no lead

Solo:
e|--------------------------------------------------------------|
B|--------------------------------------------------------------|
G|-------------11------11--13--15--15--15--13--11--11--13-------|
D|-13--13--13-----13--------------------------------------------|
A|--------------------------------------------------------------|
E|--------------------------------------------------------------|

e|---------------------------------------------------------------------|
B|------------------------------14--14--14--12--12--12--11--11--11-----|
G|--------------11------11--13-----------------------------------------|
D|--13--13--13-----13--------------------------------------------------|
A|---------------------------------------------------------------------|
E|---------------------------------------------------------------------|

e|----------------------------------------------------------------------------|
B|--------------------------------------------------------14--14--14--12--12--|
G|-------------11-----11--11--15--15--15--13--11--11--13----------------------|
D|-13--13--13-----13----------------------------------------------------------|
A|----------------------------------------------------------------------------|
E|----------------------------------------------------------------------------|



e|-----------------14--14--14--12--12--12--16--18--16------------------|
B|-12--11--11--11------------------------------------------------------|
G|---------------------------------------------------------------------|
D|---------------------------------------------------------------------|
A|---------------------------------------------------------------------|
E|---------------------------------------------------------------------|





Bridge:
e|-11--11--11-----------------------12--1212---------------------------|
B|-------------12--12--12--9--9--9--------------12--12--12--9--9--9-----|
G|----------------------------------------------------------------------|
D|----------------------------------------------------------------------|
A|----------------------------------------------------------------------|
E|----------------------------------------------------------------------|

e|-11--11--11-----------------------9--9--9-----------------------------|
B|-------------12--12--12--9--9--9-----------11--11--11--7--7--7--------|
G|----------------------------------------------------------------------|
D|----------------------------------------------------------------------|
A|----------------------------------------------------------------------|
E|----------------------------------------------------------------------|


 
 
Hillsong United - Solution Tab :: indexed at Ultimate Guitar.
Solution tabs @ 911Tabs

About the artist behind Solution Tab:

Hillsong United is the youth ministry of Hillsong Church. The youth ministry is combined of four different ages groups that meet separately but have "United" nights when they come together. The different age groups are; Fuel for years 7 to 9 at school, Wildlife for years 10 to 12 at school, Powerhouse for ages 18 to 25 and Frontline for ages 25 to 35.

Indexed at Wikipedia.

Show us your talent, perform Solution Tab!

Here you can post a video or audio performance. Tell me more ...
Where can we find your performance? Tell me more ...
Your comment:
Please, log in to post your performance.