Artists by letter: A B C D E F G H I J K L M N O P Q R S T U V W X Y Z 0-9

 
So Fine Tab
INTRO: (with Rhythm pickup)
    G5             Gmaj7                Bmadd4
|---------3---------2-----2----------|---------0--------------------|
|---3--------3---3-----------3-----0-|-----------3-----0--------1---|
|---0----------0----------------0----|-------4-------------0------0-|
|---0--------------------------------|-------------------0---3------|
|------------------------------------|--2---------------------------|
|---3--------------------------------|------------------------------|
    G5             Gmaj7                Bmadd4 
|---------3---------2-------2--------|---------0--------------------|
|---3--------3---3------------3---0--|-----------3------------3-----|
|---0----------0----------------0----|-------4-----------0--------0-|
|---0--------------------------------|-----------------2----0---0---|
|------------------------------------|--2------------3--------------|
|---3--------------------------------|------------------------------|
    G5             Gmaj7                Bmadd4   
|---------3---------2-------2--------|---------0--------------------|
|------------3---3------------3---0--|-----------3------0-----1-----|
|--------------0----------------0----|-------4-------------0-----0--|
|---0--------------------------------|------------------------------|
|------------------------------------|--2---------------------------|
|---3--------------------------------|------------------------------|
|
| Rhy. Fig 1A. Guitar 2:Clean tone (let ring throughout).
|-----------3-------2-------2--------|--0---0-x-x-0-----------------|
|-------------3----------------------|--3---3-x-x-3-----------------|
|--------0------0--------------------|--4---4-x-x-4-----------5--0--|
|------0----------0------------------|--4---4-x-x-4-----------5-----|
|------------------------------------|------------------------3-----|
|---3--------------------------------|------------------------------|
    G              Gmaj7               Bmadd4         C      D
|-----------3-------2----------------|--------0---------------------|
|---0---------3---3-------------0----|----------3--------------3----|
|---0-----------0-----------0--------|------4-------------0-------0-|
|---0--------------------------------|------------------2----0------|
|------------------------------------|--2-------------3-------------|
|---3--------------------------------|------------------------------|
|
|                                                   (end Rhy. Fig 1A)
|-----------3-------2-------2--------|--0---0-x-x-0-----------------|
|-------------3----------------------|--3---3-x-x-3-----------------|
|--------0------0--------------------|--4---4-x-x-4-------5------sl.|
|------0----------0------------------|--4---4-x-x-4---3------x-x-7-|
|------------------------------------|-----------------------x-x-5-|
|---3--------------------------------|------------------------------|

1st VERSE: 
(With Rhy. Fig. 1A)
    G              Gmaj7               Bmadd4                C
|-----------3-------2----------------|--------0---------------------|
|-------------3---3---------------0--|-----------3----0------1------|
|---------------0--------------0-----|------4------------0-------0--|
|---0--------------------------------|------------------------------|
|------------------------------------|--2---------------------------|
|---3--------------------------------|------------------------------|
    G              Gmaj7               Bmadd4         C      D
|-----------3-------2------2---------|--------0---------------------|
|---0---------3---3----------3---0---|-----------3-------------3----|
|---0-----------0--------------0-----|------4-------------0-------0-|
|---0--------------------------------|------------------2----0------|
|------------------------------------|--2-------------3-------------|
|---3--------------------------------|------------------------------|
    G              Gmaj7               Bmadd4           C
|-----------3-------2------2---------|--------0---------------------|
|-------------3---3----------3---0---|-----------3------0-----1-----|
|---------------0--------------0-----|------4--------------0-----0--|
|---0--------------------------------|------------------------------|
|------------------------------------|--2---------------------------|
|---3--------------------------------|------------------------------|
    G                  Gmaj7           Bmadd4         C        D
|-----------3-----------2------------|---------0--------------------|
|-------------3-------3-----------0--|------------3------------3----|
|------------------0----------0------|------4--------------0---2--0-|
|---0--------------------------------|-------------------2----------|
|------------------------------------|--2-------------3-------------|
|---3--------------------------------|------------------------------|

   Em             Am                       C
|----------0-------------------------|------------------------------|
|----------0-----------1-------------|-----------------1------------|
|----------0-------------------0-----|-------------0----------------|
|----------2---------------2---------|---------2--------------------|
|----------2------0------------------|-----3------------------------|
|---0--------------------------------|------------------------------|
    Em            Am                       C
|----------0-------------------------|------------------------------|
|----------0-----------1-------------|-----------------1------------|
|----------0-------------------0-----|-------------0----------------|
|----------2---------------2---------|---------2--------------------|
|----------2------0------------------|-----3------------------------|
|---0--------------------------------|------------------------------|

The 2nd VERSE is exactly the same as the first one. After the main part
of the 2nd verse, there are some slight changes in the progression over 
the Em-Am-C part (where Duff sings "It's a story of a man...). The second 
time round it is like this:

   Em            Am                        C
|---------0--------------------------|------------------------------|
|---------0------------1-------------|-----------------1------------|
|---------0--------------------0-----|-------------0----------------|
|---------2----------------2---------|---------2--------------------|
|---------2------0-------------------|-----3------------------------|
|---0--------------------------------|------------------------------|

   Em            Am                     C
|--------0---------------------------|------------------------------|
|--------0-------------1-------------|--------------1----1h3---1----|
|--------0---------------------0-----|-----------0------------------|
|--------2-----------------2---------|------2-----------------------|
|--------2-------0-------------------|--3---------------------------|
|---0--------------------------------|------------------------------|
    Em           Am                     C  
|--------0---------------------------|-------------0----------------|
|--------0-------------1-------------|-----------1---1--------------|
|--------0---------------------0-----|---------0---------0----------|
|--------2-----------------2---------|-----2-----------------2------|
|--------2-------0-------------------|--3---------------------------|
|---0--------------------------------|------------------------------|
    Em           Am                     C 
|--------0---------------------------|----------------0-------------|
|--------0-------------1-------------|------------1-------1---------|
|--------0---------------------0-----|---------0--------------0-----|
|--------2----------------2----------|------2-----------------------|
|--------2-------0-------------------|--3---------------------------|
|---0--------------------------------|------------------------------|

DOUBLE TIME: (with distortion, use Treble pickup selection) 

  D5  D6 D5 D6    E5                 G5 G6  G5  G6  D5    D6  D5
      P.M.-             P.M.--                            P.M--
|---------------|------------------|--------------|-----------------|
|---------------|------------------|--------------|-----------------|
|---------------|------------------|--------------|-----------------|
|-7---9--7--7h9-|-9-(9)--------9--|--------------|-7--(7)-9--7--7--|
|-5---5--5--5---|-7-(7)--7--7--7--|-5--7---5-5-7-|-5--(5)-5--5--5--|
|---------------|------------------|-3--3---3-3-3-|-----------------|

Play the part above three times and then:
  D5  D6 D5  D6   E5                  G5 (let ring)
      P.M.-             P.M--
|---------------|------------------|---3----------|
|---------------|------------------|---3----------|
|---------------|------------------|---0----------|
|-7---9--7--7h9-|-9-(9)--------9--|---0----------|
|-5---5--5--5---|-7-(7)--7--7--7--|--------------|
|---------------|------------------|---3----------|

GUITAR SOLO: With slide

|-------------------------------------------------------|
|---5/12---12---12-12-12/15---12---10/12-------(12)----|
|-------------------------------------------------------|
|-------------------------------------------------------|
|-------------------------------------------------------|
|-------------------------------------------------------|

|-------------------------------------------------------|
|--12-12-12/15---12---1211/12----12/17---15---(15)----|
|-------------------------------------------------------|
|-------------------------------------------------------|
|-------------------------------------------------------|
|-------------------------------------------------------|

|----15---15-1514-14-1412-12-1210-10-10/14--(14)----|
|---(15)------------------------------------------------|
|-------------------------------------------------------|
|-------------------------------------------------------|
|-------------------------------------------------------|
|-------------------------------------------------------|

|-109/10-(10)-----------------------------------------|
|----------------12-12-12/15--12--1210/12--12/17--17-/-|
|-------------------------------------------------(17)/-|
|-------------------------------------------------------|
|-------------------------------------------------------|
|-------------------------------------------------------|

OUTRO:
    G              Gmaj7             Bmadd4                  C      
|-----------3-------2--------------|---------0----------------------|
|-------------3---3-------------0--|-------------3----0------1------|
|---------------0-----------0------|------4--------------0------0---|
|---0------------------------------|--------------------------------|
|----------------------------------|--2-----------------------------|
|---3------------------------------|--------------------------------|
    G              Gmaj7             Bmadd4         C       D 
|-----------3-------2-----2--------|---------0----------------------|
|---0---------3---3---------3---0--|-------------3--------------3---|
|---0-----------0-------------0----|------4-------------0-----2---0-|
|---0------------------------------|------------------2-----0-------|
|----------------------------------|--2-------------3---------------|
|---3------------------------------|--------------------------------|
    G              Gmaj7             Bmadd4                  C    
|-----------3-------2--------------|---------0----------------------|
|-------------3---3-------------0--|-------------3----0------1------|
|---------------0-----------0------|------4--------------0------0---|
|---0------------------------------|--------------------------------|
|----------------------------------|--2-----------------------------|
|---3------------------------------|--------------------------------|
    G              Gmaj7             Bmadd4          C  
|-----------3-------2-----2--------|---------0----------------------|
|---0---------3---3---------3---0--|-------------3------------------|
|---0-----------0-------------0----|------4--------------0----------|
|---0------------------------------|-------------------2------------|
|----------------------------------|--2--------------3-------3-2-0--|
|---3------------------------------|--------------------------------|
    G
|----------------------------------|--------------------------------|
|---3------------------------------|-(3)----------------------------|
|---0------------------------------|-(0)----------------------------|
|---0------------------------------|-(0)----------------------------|
|----------------------------------|--------------------------------|
|---3------------------------------|-(3)----------------------------|


Here is Slash's solo for So Fine when it was performed live at the 
Toyko Dome in 1992(from the Use Your Illusion II video).

SOLO: (with Rhythm selection but, the notes are struck near the 
bridge pick-up.)
                                  bend back up
         hold bend    RP     RE   and hold bend      RP        RE
|------------------------------------------------10-----------------|
|--10 fb (12)--------(12)---(11)-----(12)-----------(12)~~~~~-(10)--|
|-------------------------------------------------------------------|
|-------------------------------------------------------------------|
|-------------------------------------------------------------------|
|-------------------------------------------------------------------|
                                  bend back up 
         hold bend    RP     RE   and hold bend       RP      RE
|------------------------------------------------10-----------------|
|--10 fb (12)~~------(12)---(10)-----(12)------------(12)----(10)~~-|
|-------------------------------------------------------------------|
|-------------------------------------------------------------------|
|-------------------------------------------------------------------|
|-------------------------------------------------------------------|
    
|--10 fb (12)--10~~~~--15-15-15p14-14-14-1412-12-12-12/14-14-14-14-|
|-------------------------------------------------------------------|
|-------------------------------------------------------------------|
|-------------------------------------------------------------------|
|-------------------------------------------------------------------|
|-------------------------------------------------------------------|
   PB 14      RE   bend back up      Hold bend       RP
|-----------------------------------------------10------------------|
|--(16)------(12)------(16)------10 fb (12)---------(12)~~~~--------|
|-------------------------------------------------------------------|
|-------------------------------------------------------------------|
|-------------------------------------------------------------------|
|-------------------------------------------------------------------|
         RP   RE
|--10---------------------------------------------------------------|
|-------(12)-(10)p8----10 fb (12)~~~~~~-----15 fb (17)~~~~~~~-------|
|-------------------------------------------------------------------|
|-------------------------------------------------------------------|
|-------------------------------------------------------------------|
|-------------------------------------------------------------------|

RP = re-pick
RE = release 
fb = full bend

 
 
Guns N Roses - So Fine Tab :: indexed at Ultimate Guitar.
So Fine tabs @ 911Tabs

Quick tip, so you can enjoy So Fine Tab even more:

Try out the AutoScroller option ... It scrolls the page for you, so you can totally focus on nailing that solo. You can choose among different speeds using your mouse or your keyboard (keys 0, 1, 2 and 3).

Show us your talent, perform So Fine Tab!

Here you can post a video or audio performance. Tell me more ...
Where can we find your performance? Tell me more ...
Your comment:
Please, log in to post your performance.