Artists by letter: A B C D E F G H I J K L M N O P Q R S T U V W X Y Z 0-9

 
Hard To Watch You Go Tab
----------------------------------------------------------------------------
                 HARD TO WATCH YOU GO - Goodnight Nurse
----------------------------------------------------------------------------
This is my first tab so please rate. There were no other tabs for this song so i decided 
write one myself. I'm sure that most of it is right but there are a few things I'm not 
of. If you have any questions or corrections please comment or email me.

tabbed by young nasty man
email - [email protected]


INTRO:

Guitar 1
e|-------------------------------------------------------------------------|
B|-----7---------7-------7---------7-------7---------7-------7---------7---|
G|---8---8-----8---8---8---8-----8---8---8---8-----8---8---8---8-----8---8-|
D|-9-------9-9-------8-------8-8-------9-------9-9-------8-------8-8-------|
A|-------------------------------------------------------------------------|
E|-------------------------------------------------------------------------|

Guitar 2
e|-----------------------------------------------------------------------|
B|-----------------------------------------------------------------------|
G|------------------------------------------11111111-- 
D|---999999999999-/-11111111--888888888888--x-x-x-x--- 
A|---999999999999-/-11111111--666666666666--9-9-9-9--- 
E|---777777777777-/-9-9-9-9---666666666666-------------------------------|

VERSE ONE:

e|-------------------------------------------------------|
B|-------------------------------------------------------|
G|-------------------------------------------------------|
D|---9999999999999999--8888888888888888------------------|
A|-------------------------------------------------------|
E|-------------------------------------------------------|
  Pm ................  ................

     I'm not sure which one of these is correct.
     They both sound right so I'm not sure.
     So you can just play whatever one you prefer.

e|---------------------------------------------------------|
B|---------------------------------------------------------|
G|-----------66666666--------------------------------------|
D|---99999999--------8888888888888888----------------------|
A|---------------------------------------------------------|
E|---------------------------------------------------------|
  Pm ................................

PRE CHORUS:

e|---------------------------------------|
B|---------------------------------------|
G|---------------------------------------|  I think thats it.
D|--99999999-88888888-44444444-44444444--|  I can't figure out the last
A|--99999999-66666666-44444444-22222222--|  chord so i just do that F# thing
E|--77777777-66666666-22222222-22222222--|x2
  Pm ........ ........ ........ ....


CHORUS:

Both Guitars
e|----------------------------------------------------------------------|
B|----------------------------------------------------------------------|
G|-------------------4444444444444444-----------------------------------|
D|--2222222222222222-4444444444444444-8888888888888888-4444444488888888-|
A|--2222222222222222-2222222222222222-6666666666666666-4444444488888888-|
E|--0000000000000000------------------6666666666666666-2222222266666666-|x2


Repeat INTRO.

VERSE TWO:

e|-------------------------------------------------------|
B|-------------------------------------------------------|
G|-------------------------------------------------------|
D|---9999999999999999--8888888888888888------------------|
A|---9999999999999999--6666666666666666------------------|
E|---7777777777777777--6666666666666666------------------|
  Pm ................  ................

Repeat PRE CHORUS but use less palm muting.
Repeat CHORUS

INTERLUDE:

Guitar 1 just repeats the INTRO.
Guitar 2 plays this (twelves and elevens not ones and twos)
e|-------------------------------------------------------------|--------|
B|--121212121212121212121212-14141414-111111111111111111111111-|--7777--|
G|-------------------------------------------------------------|--------|
D|-------------------------------------------------------------|--------|
A|-------------------------------------------------------------|--------|
E|-------------------------------------------------------------|--------|x2

SOLO:

Guitar 1
e|-----------------------------------------------------------------------|
B|-----------------------------------------------------------------------|
G|-----------------------------------------------------------------------|
D|--9999999999999999-8888888888888888-4444444444444444-6666666666666666--|
A|--9999999999999999-6666666666666666-4444444444444444-6666666666666666--|
E|--7777777777777777-6666666666666666-2222222222222222-4444444444444444--|

e|----------------------------------------------------|
B|----------------------------------------------------|
G|----------------------------------------------------|
D|--8888888888888888-1111111111111111111111111111111--|
A|--6666666666666666-1111111111111111111111111111111--|
E|--6666666666666666-9-9-9-9-9-9-9-9-9-9-9-9-9-9-9-9--|

Guitar 2
e|---------------------------------------------------------------------|
B|---------------------------------------------------------------------|
G|--161616161616161616161616/181818181515151515151515111111118888/--|
D|--x-x-x-x-x-x-x-x-x-x-x-x-/x-x-x-x-x-x-x-x-x-x-x-x-x-x-x-x-xxxx/--|
A|--141414141414141414141414/1616161613131313131313139-9-9-9-6666/--|
E|---------------------------------------------------------------------|

e|------------------------------------------------------------------------|
B|------------------------------------------------------------------------|
G|--11111111111111111111111/16161616131313131313131313131313/16161616---|
D|--x-x-x-x-x-x-x-x-x-x-x-x/x-x-x-x-x-x-x-x-x-x-x-x-x-x-x-x-/x-x-x-x----|
A|--9-9-9-9-9-9-9-9-9-9-9-9/14141414111111111111111111111111/14141414---|
E|------------------------------------------------------------------------|

e|----------------------------------------------------------------------|
B|----------------------------------------------------------------------|
G|--151515151515151515151515/16161616/18181818181818181818181818181818/-|
D|--x-x-x-x-x-x-x-x-x-x-x-x-/x-x-x-x-/x-x-x-x-x-x-x-x-x-x-x-x-x-x-x-x-/-|
A|--131313131313131313131313/14141414/16161616161616161616161616161616/-|
E|----------------------------------------------------------------------|

e|------------------|
B|------------------|
G|--20202020/23~~~--|
D|--x-x-x-x-/x-~~~--|
A|--18181818/21~~~--|
E|------------------|


Repeat CHORUS.
Repeat INTRO until fade.

 
 
Goodnight Nurse - Hard To Watch You Go Tab :: indexed at Ultimate Guitar.
Hard To Watch You Go tabs @ 911Tabs
People who played Goodnight Nurse - Hard To Watch You Go Tab also played these songs by Goodnight Nurse:
All For You Chords, My Only Chords, Serpent Queen Part 2 Chords, Hard To Watch You Go Chords, All For You Tab, No Way To Escape Chords

About the artist behind Hard To Watch You Go Tab:

Goodnight Nurse is a pop punk band based in New Zealand. The band formed in Auckland, New Zealand, in 2001,[2] originally as a trio, but later changed to a four-piece line-up which currently consists of lead vocalist Joel Little, guitarist and back up vocalist Sam McCarthy, bassist Rowan Crowe, with drummer and back up vocalist Jaden Parkes.[2] The band has released two studio albums, including Always and Never (2006) and Keep Me On Your Side (2008), both peaking at #5 in their home country.[3] Their latest single "I Need This", was released on May 5, 2008 in Australia and New Zealand. Goodnight Nurse will be supporting The Getaway Plan on their Where the City Meets the Sea Australian tour.

Indexed at Wikipedia.

Show us your talent, perform Hard To Watch You Go Tab!

Here you can post a video or audio performance. Tell me more ...
Where can we find your performance? Tell me more ...
Your comment:
Please, log in to post your performance.