Artists by letter: A B C D E F G H I J K L M N O P Q R S T U V W X Y Z 0-9

 

Yo Pense Tab
yO pEnSé - DeluX

              Yo pensé.           q este era mi lugar..
e|--------------------|-------------------------------|
B|--------------------|-------------------------------|
G|--------------------|-------------------------------|
D|----2/4-4-4-4-4-----|-4/7-7-7-7-7-------------------| (ambas guitarras)
A|----2/4-4-4-4-4-----|-4/7-7-7-7-7-------------------|
E|----0/2-2-2-2-2-----|-2/5-5-5-5-5-------------------|

No entiendo el sufrimiento ..

e|---------------------------------------------------|
B|---------------------------------------------------|
G|-7-7-7-7-7-7-7-7-7-7-7-7-7-7-7-7-7-----------------|
D|—7-7-7-7-7-7-7-7-7-7-7-7-7-7-7-7-7-7---------------| (guitarra 1 )
A|—5-5-5-5-5-5-5-5-5-5-5-5-5-5-5-5-5-5---------------|
E|—--------------------------------------------------|

1---------------------------------------------------|
2---------------------------------------------------|
3----7-------9---------11------------14-------------|
4----x-------x----------x-------------x-------------| ( guitarra 2 )
5----5-------7---------9-------------12-------------|
6---------------------------------------------------|

e|--------------------|-------------------------------|
B|--------------------|-------------------------------|
G|--------------------|-------------------------------|
D|----2/4-4-4-4-4-----|-4/7-7-7-7-7-------------------| (guitarra 1)
A|----2/4-4-4-4-4-----|-4/7-7-7-7-7-------------------|
E|----0/2-2-2-2-2-----|-2/5-5-5-5-5-------------------|


1--------------------------------------------------|
2--------------------------------------------------|
3—9/11-11-11-11-11--11/14-14-14-14-14--------------|
4—x/x—-x—-x--x--x---11/-x-x-x-x-x-x----------------| ( guitarra 2 )
5—7/9—-9--9—-9--9---9/-12-12-12-12-12--------------|
6--------------------------------------------------|

e|---------------------------------------------------|
B|---------------------------------------------------|
G|-7-7-7-7-7-7-7-7-7-7-7-7-7-7-7-7-7-7---------------|
D|—7-7-7-7-7-7-7-7-7-7-7-7-7-7-7-7-7-7---------------| (guitarra 1 )
A|—5-5-5-5-5-5-5-5-5-5-5-5-5-5-5-5-5-5---------------|
E|—--------------------------------------------------|


1------------------------------------------------------|
2------------------------------------------------------|
3----7-------9---------11------------14----------------|
4----x-------x---------x--------------x----------------| ( guitarra 2 )
5----5-------7---------9-------------12----------------|
6------------------------------------------------------|

1--------------------------------------------------------|
2--------------------------------------------------------|
3--------- (11) -----------------------------------------|
4----------(x) ----dejalo sonaaR-------------------------|
5--------- (9) ------------------------------------------|
6--------------------------------------------------------|

bajeo—


Coro
 Regresame ..
e|----------------------------------------------------------------|
B|----------------------------------------------------------------|
G|-----------6---------7-----------9------------------------------|
D|-7---------6---------7-----------9------------------------------|
A|-7---------4---------5-----------7------------------------------|
E|-5--------------------------------------------------------------|


e|-----------------------------------------------------------------|
B|-----------------------------------------------------------------|
G|-11----------14---------7-----------9----------------------------|
D|-11----------14---------7-----------9----------------------------|
A|-9-----------12---------5-----------7----------------------------|
E|-----------------------------------------------------------------|


te soné con una vida normal----

e|--------------------------------------------------------|
B|--------------------------------------------------------|
G|----11------14---------7----9---11-----14---------------|
D|----x-------x----------x----x----x------x---------------|
A|----9-------12---------5----7----9-----12---------------|
E|--------------------------------------------------------|
  ..p.m     ..p.m        

nO pense que me fuera a traicionar 
e|--------------------------------------------------------|
B|--------------------------------------------------------|
G|-------------------7------------------------------------|
D|----4-----7--------x------------------------------------|
A|----4-----7--------5------------------------------------|
E|----2-----5---------------------------------------------|

    .p.m     .p.m                     .p.m..................pm...........

e|-------------------------------------------------------|
B|-------------------------------------------------------|
G|--------- (11) ----------------------------------------|
D|----------(x) -----------------------------------------|
A|--------- (9) -----------------------------------------|
E|-------------------------------------------------------|


Coro

Regresame ..
e|----------------------------------------------------------------|
B|----------------------------------------------------------------|
G|-----------6---------7-----------9------------------------------|
D|-7---------6---------7-----------9------------------------------|
A|-7---------4---------5-----------7------------------------------|
E|-5--------------------------------------------------------------|


e|----------------------------------------------------------------|
B|----------------------------------------------------------------|
G|-11---------14---------7-----------9----------------------------|
D|-11---------14---------7-----------9----------------------------|
A|-9----------12---------5-----------7----------------------------|
E|----------------------------------------------------------------|

e|-------------------------------------------------------|
B|-------------------------------------------------------|
G|--------- (11) ----------------------------------------|
D|----------(x) -----------------------------------------|
A|--------- (9) -----------------------------------------|
E|-------------------------------------------------------|


Bajeo—

1----------------------------------------------------------------------------|
2----------------------------------------------------------------------------|
3----------------------------------------------------------------------------|
4----/////////////////////////////////---------------------------------------|/////////-(slides
5-------------------------------/////////////---------------///////////////--|
6---------------------------------------------------//-----------------------|

                  Puenteee --------------------------------------------------|
1----------------------------------------------------------------------------|
2----------------------------------------------------------------------------|
3---------------------------------------7---------7--------7-------7---------|
4—4------------------6------------------7---------7--------7-------7---------|
5—4------------------6------------------5---------5--------5-------5---------|
6—2------------------4-------------------------------------------------------|

Solo—

1----------------------------------------------------------------------------|
2—15-15-15-13----------------------15-15-15-13-------------------------------|
3------------15--13--15-13--15—13--^^^^^^^^^^^-15--13--15--13--15—13------4--|
5----------------------------------------------------------------------------|
6----------------------------------------------------------------------------|

1---------------------------------------------------------------------------|
2-17-15-14--17-15-14--17-15-14--17-15-14-17-15-14—17-15-14—17-15------------|
3---------------------------------------------------------------------------|
4---------------------------------------------------------------------------|
5---------------------------------------------------------------------------|
6---------------------------------------------------------------------------|

1----------------------------------------------------------------------------|
2—17-14-17-14-17-14-17-14-17-14-17-14-17-14-17-14—17^--17^-------------------|
3----------------------------------------------------------------------------|
4----------------------------------------------------------------------------|
5----------------------------------------------------------------------------|
6----------------------------------------------------------------------------|


Coro
Regresame ..
e|----------------------------------------------------------------|
B|----------------------------------------------------------------|
G|-----------6---------7-----------9------------------------------|
D|-7---------6---------7-----------9------------------------------|
A|-7---------4---------5-----------7------------------------------|
E|-5--------------------------------------------------------------|


e|----------------------------------------------------------------|
B|----------------------------------------------------------------|
G|-11---------14---------7-----------9----------------------------|
D|-11---------14---------7-----------9----------------------------|
A|-9----------12---------5-----------7----------------------------|
E|----------------------------------------------------------------|

Outro-

1----------------------------------------------------------------------------|
2----------------------------------------------------------------------------|
3----------------------------------------------------------------------------|
4----------4-----------------------------------------------------------------|
5----------4------- (la guitarra 1 solo toca este acorde---------------------|
6----------2------- durante el outro)----------------------------------------|

1------------------------------------------------------------------------------|
2------------------------------------------------------------------------------|
3----------------11------------------------------------------------------------|
4----------------x--------(la guitarra 2 toca este)----------------------------|
5----------------9-------------------------------------------------------------|
6------------------------------------------------------------------------------|


Bueno compas este es mi 1er tab
Creo q esta correcto pro chekenlo
Sta chida la rola
Cualquier comen o correcci0n
Este es mi mail [email protected]

 
 
Delux - Yo Pense Tab :: indexed at Ultimate Guitar.
Yo Pense tabs @ 911Tabs
People who played Delux - Yo Pense Tab also played these songs by Delux:
De Mi Enamorate Chords, Dime Tab, Infatuacion Chords, Quien Comparte Tu Silencio Chords, Si Tu Chords, Dime Chords

About the artist behind Yo Pense Tab:

Be Bop Deluxe were an English progressive rock band who achieved critical acclaim and moderate commercial success during the mid to late 1970s.

Indexed at Wikipedia.

Show us your talent, perform Yo Pense Tab!

Here you can post a video or audio performance. Tell me more ...
Where can we find your performance? Tell me more ...
Your comment:
Please, log in to post your performance.