Artists by letter: A B C D E F G H I J K L M N O P Q R S T U V W X Y Z 0-9

 
Clean My Wounds Tab
#----------------------------------PLEASE NOTE---------------------------------#
#This file is the author's own work and represents their interpretation of the #
#song. You may only use this file for private study, scholarship, or research. #
#------------------------------------------------------------------------------#

CLEAN MY WOUNDS
As recorded by Corrosion of Conformity
(From the 1994 Album DELIVERANCE)

Transcribed by Blackacid
	

Words and Music by Corrosion of Conformity
Arranged by Corrosion of Conformity

Gtr I (D G C F A D) - 'Untitled'
Gtr II (D G C F A D) - 'Untitled'

 Intro
  Q=140
  G5                                      G5
 4/4
  Gtr I
  Q  E E S S E E E   S S E Q.   E S S E   Q  E E S S E E E   S S E H.
|------------------|--------------------|------------------|-------------|
|------------------|--------------------|------------------|-------------|
|------------------|--------------------|------------------|-------------|
|-2----------------|--------------------|-2--------------0-|-0-0-0-------|
|-0----3-3-3-3-----|--------------------|-0----3-3-3-3-----|-------------|
|----------------3-|-3-3-3------0-3-3-3-|------------------|-------------|


  Gm                                      Gm
  Gtrs I, II
  ~                                       ~
  Q  E E S S E E E   S S E Q.   E S S E   Q  E E S S E E E   S S E H.
|------------------|--------------------|------------------|-------------||
|------------------|--------------------|------------------|-------------||
|------------------|--------------------|------------------|-------------||
|------------------|--------------------|----------------0-|-0-0-0-------||
|-3----3-3-3-3-----|--------------------|-3----3-3-3-3-----|-------------||
|-5--------------3-|-3-3-3------0-3-3-3-|-5----------------|-------------||


 Verse
  $
  G5                                      G5
  Gtrs I, II
  Q  E E S S E E E   S S E Q.   E S S E   Q  E E S S E E E   S S E H.
|------------------|--------------------|------------------|-------------|
|------------------|--------------------|------------------|-------------|
|------------------|--------------------|------------------|-------------|
|-2----------------|--------------------|-2--------------0-|-0-0-0-------|
|-0----3-3-3-3-----|--------------------|-0----3-3-3-3-----|-------------|
|----------------3-|-3-3-3------0-3-3-3-|------------------|-------------|


  Gm
  Gtr I
  ~
  Q  E E S S E E E   S S E Q.   E S S E
|------------------|--------------------|
|------------------|--------------------|
|------------------|--------------------|
|------------------|--------------------|
|-3----3-3-3-3-----|--------------------|
|-5--------------3-|-3-3-3------0-3-3-3-|
|
| Gtr II
| ~
| Q  E E S S E E E   S S E Q.   E S S E
|------------------|--------------------|
|------------------|--------------------|
|------------------|--------------------|
|------------------|--------------------|
|-3----3-3-3-3-----|--------------------|
|-5--------------3-|-3-3-3------0-3-3-3-|


  Gm                                Eb/G
  ~
  Q  E E S S E E E   S S E  H.
|------------------|-------------------------||
|------------------|-------------------------||
|------------------|-------------------------||
|----------------0-|-0-0-0-------------------||
|-3----3-3-3-3-----|-------------------------||
|-5----------------|-------------------------||
|
| ~
| Q  E E S S E E E   S S E  S  S  E  Q   Q
|------------------|-------------------------||
|------------------|-------------------------||
|------------------|----------------10-------||
|----------------0-|-0-0-0----------10-------||
|-3----3-3-3-3-----|----------------12-------||
|-5----------------|-------10h12-12-----12--||


 Pre-Chorus
  G5                                      G5
  Gtrs I, II
  Q  E E S S E E E   S S E Q.   E S S E   Q  E E S S E E E   S S E H.
|------------------|--------------------|------------------|-------------|
|------------------|--------------------|------------------|-------------|
|------------------|--------------------|------------------|-------------|
|-2----------------|--------------------|-2--------------0-|-0-0-0-------|
|-0----3-3-3-3-----|--------------------|-0----3-3-3-3-----|-------------|
|----------------3-|-3-3-3------0-3-3-3-|------------------|-------------|


  Gm
  ~
  Q  E E S S E E E   S S E Q.   E S S E
|------------------|--------------------|
|------------------|--------------------|
|------------------|--------------------|
|------------------|--------------------|
|-3----3-3-3-3-----|--------------------|
|-5--------------3-|-3-3-3------0-3-3-3-|


  Gm
  ~
  Q  E E S S E E E   S S E E. S Q   Q
|------------------|---------------------||
|------------------|---------------------||
|------------------|---------------------||
|----------------0-|-0-0-0---------------||
|-3----3-3-3-3-----|----------x-x--------||
|-5----------------|----------x-x--10---||


   Chorus
                                                                       D.S.
    G5   Bb5            F5        F5    G5   Bb5     C5                Bb5
    Gtr I
                                                                    ~
    Q.   Q.   E E   +E  E Q   E E E E   Q.   Q.    E E   +Q      Q  Q   Q
||----------------|-------------------|----------------|---------------------||
||o---------------|-------------------|----------------|--------------------o||
||----------------|-------------------|----------------|---------------------||
||--2----5----5-5-|-(5)---------------|-2----5-----5S7-|-(7)-----7--7---5---||
||o-0----3----3-3-|-(3)-5-5---5---5---|-0----3-----3S5-|-(5)-----5--5---3--o||
||----------------|-----3-3---3-0-3-0-|----------------|---------------------||
|
|   Gtr II
|   ~~~~~~~~    ~~~~~~~~  ~~~~~~~~~~~~~~~~~      ~               ~~
|   Q.   Q.   E E   +E  E H.            Q.   E E Q   E    E   E  H      Q
||----------------|-------------------|----------------|---------------------||
||o---------------|-------------------|----------------|--------------------o||
||----------------|-------------------|----------------|---------------------||
||----------------|-------------------|----------------|---------------------||
||o---------------|-------------------|----------------|--------------------o||
||--5----8----8-8-|-(8)-3-3-----------|-5----5S8-8---8-|-10--10-10-----10---||


 Guitar Solo
  G5
   Q   E  E     S  S E E  E       S S E Q.   E S S E
|------------------------------|---------------------|
|------------------------------|---------------------|
|------------------------------|---------------------|
|--2---------------------------|---------------------|
|--0------3-----3--3-3---------|---------------------|
|-------------------------3----|--3-3-3------0-3-3-3-|
|
|  ~~~          ~~~                     ~~
|  Q.     S  S  Q.        S  S    E   E H      E   E
|------------------------------|---------------------|
|------------------------------|---------------------|
|------------------------------|---------------------|
|-10-----10h12p10--------10h12p|=10---9-9----------7-|
|------------------------------|---------------------|
|------------------------------|---------------------|


  G5
   Q   E E  S  S  E    E    E
|--------------------------------|
|--------------------------------|
|--------------------------------|
|--2------------------------0----|
|--0-----3--3--3--3--------------|
|--------------------------------|
|
|  ~~~~~~
|                 |--3---|
|  Q   Q    S  S  Q      E  S  S
|--------------------------------|
|--------------------------------|
|--------------------------------|
|-10--10---10-12-12b16r====12p10-|
|--------------------------------|
|--------------------------------|


                     Gm
                       ~~~~~~~~
   S S E   H.          Q      E  E    S S E E E   S S E   Q.   E S S E
|------------------|----------------------------|-----------------------|
|------------------|----------------------------|-----------------------|
|------------------|----------------------------|-----------------------|
|--0-0-0-----------|----------------------------|-----------------------|
|------------------|---3---------3----3-3-3-----|-----------------------|
|------------------|---5----------------------3-|-3-3-3--------0-3-3-3--|
|
|          ~~                                             ~~
|  S S S S H.          Q      E  Q        E E E   E   S S H.
|------------------|----------------------------|-----------------------|
|------------------|-[10]b14r=8-10b14r====8-----|-----------------------|
|------------------|------------------------9-7-|-9---5h7p5-------------|
|-12---7-9-7-------|----------------------------|-----------------------|
|------------------|----------------------------|-----------------------|
|------------------|----------------------------|-----------------------|


  Gm
   ~~~
   Q   E  E     S  S E E  E
|---------------------------------|
|---------------------------------|
|---------------------------------|
|-------------------------0-------|
|--3------3-----3--3-3------------|
|--5------------------------------|
|
|  ~~~          ~~~
|                         |--3--|
|  Q.     S  S  Q.        S  S  S
|---------------------------------|
|---------------------------------|
|---------------------------------|
|-10-----10-12-10--------10h12p10-|
|---------------------------------|
|---------------------------------|


                        G5
  S S E H.              Q  E E   S S E E E
|---------------------|--------------------------|
|---------------------|--------------------------|
|---------------------|--------------------------|
|-0-0-0---------------|-2------------------------|
|---------------------|-0----3---3-3-3-----------|
|---------------------|------------------3-------|
|
| ~~~~~~~~~             ~        ~
|                                        |-3-|
| Q     H     S S S S   Q  E S S Q     E S S S
|---------------------|--------------------------|
|---------------------|--------------------------|
|-----------------2h5-|-2----4-5S7-------5h7p5S==|
|-9-----7-----2h5-----|--------------------------|
|---------------------|--------------------------|
|---------------------|--------------------------|


                         G5
  S   S E Q.   E S S E    Q  E E S S E E E     S  S E H.
|----------------------|---------------------|----------------------|
|----------------------|---------------------|----------------------|
|----------------------|---------------------|----------------------|
|----------------------|--2--------------0---|-0--0-0---------------|
|----------------------|--0----3-3-3-3-------|----------------------|
|-3---3-3------0-3-3-3-|---------------------|----------------------|
|
| ~~~                                ~         ~~
| H..                E    Q  Q   E   Q   S S   H.           S S S S
|----------------------|---------------------|----------------------|
|----------------------|---------8-----------|----------------------|
|-4--------------------|-14S=5-------4-------|------------------5h7-|
|----------------------|-----------------7p5p|=4------------5h7-----|
|----------------------|---------------------|----------------------|
|----------------------|---------------------|----------------------|


  Gm
  ~~
  Q       E   E      S S E E E       S  S E     Q.       E S S E
|---------------------------------|------------------------------|
|---------------------------------|------------------------------|
|---------------------------------|------------------------------|
|---------------------------------|------------------------------|
|-3-----------3------3-3-3--------|------------------------------|
|-5--------------------------3----|--3--3-3--------------0-3-3-3-|
|
|                                                    ~~
| S S S S S S T T E.     E E E      +E.     +S  S  S Q.    Q
|---------------------------------|------------------------------|
|-5h6p5---5h6h8p5h6------8---8b12r|=(8)-----(8)-6--5-------------|
|-------7-------------------------|------------------7-----------|
|---------------------------------|------------------------------|
|---------------------------------|------------------------------|
|---------------------------------|------------------------------|


  Gm
  ~~~~~
  Q        E   E   S S E     E   E
|--------------------------------------|
|--------------------------------------|
|--------------------------------------|
|--------------------------------0-----|
|-3------------3---3-3-3---------------|
|-5------------------------------------|
|
|                      |-3-|
| E    S S S S S S S S S S S S S S S
|--------------------------------------|
|------5-8-5---8p5---5h8p5---8-5---5---|
|-7b11r======8-----8-------8-----8-----|
|--------------------------------------|
|--------------------------------------|
|--------------------------------------|


                                                   G5
  S   S   E     H.                                 Q       E E S S E E E
|------------------------------------------------|------------------------|
|------------------------------------------------|------------------------|
|------------------------------------------------|------------------------|
|-0---0---0--------------------------------------|-2----------------------|
|------------------------------------------------|-0---------3-3-3-3------|
|------------------------------------------------|---------------------3--|
|
| |--3--| |-3-|
| S S   S S S S T T T T T T T T E    S S S S S S   W
|-------------------5h8p5h8p5h8------5-8-5-------|------------------------|
|-8p5-----5h8p5h8p5-------------8b12-------8-5-5-|-5----------------------|
|-------8----------------------------------------|-8pb12==================|
|------------------------------------------------|------------------------|
|------------------------------------------------|------------------------|
|------------------------------------------------|------------------------|


                         G5                                    Eb/G
   S  S E Q.   E S S E    Q   E E S S E E E    S  S E  S  S  E  Q   Q
|----------------------|--------------------|---------------------------||
|----------------------|--------------------|---------------------------||
|----------------------|--------------------|------------------10-------||
|----------------------|--2---------------0-|--0--0-0----------10-------||
|----------------------|--0-----3-3-3-3-----|------------------12-------||
|--3--3-3------0-3-3-3-|--------------------|---------10h12-12-----12--||
|
|                                              >
| +W                     +W                   +W
|----------------------|--------------------|---------------------------||
|-(5)------------------|-(5)----------------|-(5)-----------------------||
|-(8)------------------|-(8)----------------|-(8)-----------------------||
|----------------------|--------------------|---------------------------||
|----------------------|--------------------|---------------------------||
|----------------------|--------------------|---------------------------||


 Verse
  G5                                      G5
  Gtrs I, II
  Q  E E S S E E E   S S E Q.   E S S E   Q  E E S S E E E   S S E H.
|------------------|--------------------|------------------|-------------|
|------------------|--------------------|------------------|-------------|
|------------------|--------------------|------------------|-------------|
|-2----------------|--------------------|-2--------------0-|-0-0-0-------|
|-0----3-3-3-3-----|--------------------|-0----3-3-3-3-----|-------------|
|----------------3-|-3-3-3------0-3-3-3-|------------------|-------------|


  Gm                                      Gm
  ~                                       ~
  Q  E E S S E E E   S S E Q.   E S S E   Q  E E S S E E E   S S E H.
|------------------|--------------------|------------------|-------------||
|------------------|--------------------|------------------|-------------||
|------------------|--------------------|------------------|-------------||
|------------------|--------------------|----------------0-|-0-0-0-------||
|-3----3-3-3-3-----|--------------------|-3----3-3-3-3-----|-------------||
|-5--------------3-|-3-3-3------0-3-3-3-|-5----------------|-------------||


 Pre-Chorus
  G5
  Gtr I
  Q  E E S S E E E   S S E Q.   E S S E
|------------------|--------------------|
|------------------|--------------------|
|------------------|--------------------|
|-2----------------|--------------------|
|-0----3-3-3-3-----|--------------------|
|----------------3-|-3-3-3------0-3-3-3-|
|
| Gtr II
| Q  E E S S E E E   S S E Q.   E S S E
|------------------|--------------------|
|------------------|--------------------|
|------------------|--------------------|
|-2----------------|--------------------|
|-0----3-3-3-3-----|--------------------|
|----------------3-|-3-3-3------0-3-3-3-|


  G5                                Eb/G
  Q  E E S S E E E   S S E  H.
|------------------|-------------------------|
|------------------|-------------------------|
|------------------|-------------------------|
|-2--------------0-|-0-0-0-------------------|
|-0----3-3-3-3-----|-------------------------|
|------------------|-------------------------|
|
| Q  E E S S E E E   S S E  S  S  E  Q   Q
|------------------|-------------------------|
|------------------|-------------------------|
|------------------|----------------10-------|
|-2--------------0-|-0-0-0----------10-------|
|-0----3-3-3-3-----|----------------12-------|
|------------------|-------10h12-12-----12S==|


  Gm
  Gtrs I, II
  ~
  Q  E E S S E E E   S S E Q.   E S S E
|------------------|--------------------|
|------------------|--------------------|
|------------------|--------------------|
|------------------|--------------------|
|-3----3-3-3-3-----|--------------------|
|-5--------------3-|-3-3-3------0-3-3-3-|


  Gm
  ~
  Q  E E S S E E E   S S E E. S Q   Q
|------------------|---------------------||
|------------------|---------------------||
|------------------|---------------------||
|----------------0-|-0-0-0---------------||
|-3----3-3-3-3-----|----------x-x--------||
|-5----------------|----------x-x--10---||


   Chorus
    G5   Bb5            F5        F5    G5   Bb5     C5                Bb5
    Gtr I
                                                                    ~
    Q.   Q.   E E   +E  E Q   E E E E   Q.   Q.    E E   +Q      Q  Q  Q
||----------------|-------------------|----------------|--------------------||
||o---------------|-------------------|----------------|-------------------o||
||----------------|-------------------|----------------|--------------------||
||--2----5----5-5-|-(5)---------------|-2----5-----5S7-|-(7)-----7--7--5---||
||o-0----3----3-3-|-(3)-5-5---5---5---|-0----3-----3S5-|-(5)-----5--5--3--o||
||----------------|-----3-3---3-0-3-0-|----------------|--------------------||
|
|   Gtr II
|   ~~~~~~~~    ~~~~~~~~  ~~~~~~~~~~~~~~~~~      ~               ~~
|   Q.   Q.   E E   +E  E H.            Q.   E E Q   E    E   E  H     Q
||----------------|-------------------|----------------|--------------------||
||o---------------|-------------------|----------------|-------------------o||
||----------------|-------------------|----------------|--------------------||
||----------------|-------------------|----------------|--------------------||
||o---------------|-------------------|----------------|-------------------o||
||--5----8----8-8-|-(8)-3-3-----------|-5----5S8-8---8-|-10--10-10-----8---||


   Out-Chorus
    G5   Bb5            F5        F5    G5   Bb5     C5                Bb5
                                                                    ~
    Q.   Q.   E E   +E  E Q   E E E E   Q.   Q.    E E   +Q      Q  Q  Q
||----------------|-------------------|----------------|--------------------||
||o---------------|-------------------|----------------|-------------------o||
||----------------|-------------------|----------------|--------------------||
||--2----5----5-5-|-(5)---------------|-2----5-----5S7-|-(7)-----7--7--5---||
||o-0----3----3-3-|-(3)-5-5---5---5---|-0----3-----3S5-|-(5)-----5--5--3--o||
||----------------|-----3-3---3-0-3-0-|----------------|--------------------||
|
|   ~~~~~~~~    ~~~~~~~~  ~~~~~~~~~~~~~~~~~      ~               ~~
|   Q.   Q.   E E   +E  E H.            Q.   E E Q   E    E   E  H     Q
||----------------|-------------------|----------------|--------------------||
||o---------------|-------------------|----------------|-------------------o||
||----------------|-------------------|----------------|--------------------||
||----------------|-------------------|----------------|--------------------||
||o---------------|-------------------|----------------|-------------------o||
||--5----8----8-8-|-(8)-3-3-----------|-5----5S8-8---8-|-10--10-10-----8---||


   Outro
    G5    Bb5                       F5       F5
     Q.    Q.         E  E      +E  E Q  E E E E
||----------------------------|------------------|
||o---------------------------|------------------|
||----------------------------|------------------|
||---2-----5----------5--5----|-(5)--------------|
||o--0-----3----------3--3----|-(3)-5-5--5---5---|
||----------------------------|-----3-3--3-0-3-0-|
|
|    ~~~          ~~~                 ~
|    Q.    S   S  Q.     S  S    E  E H      E E
||----------------------------|------------------|
||o---------------------------|------------------|
||----------------------------|------------------|
||--10----10--12-10-----10-12-|-10--9-9--------7-|
||o---------------------------|------------------|
||----------------------------|------------------|


  G5      Bb5                C5                         Bb5
                                                   ~
   Q.     Q.             E    E      +Q        Q   Q    Q
|----------------------------------|-------------------------||
|----------------------------------|------------------------o||
|----------------------------------|-------------------------||
|--2------5--------------5S===7----|-(7)-------7---7----5---||
|--0------3--------------3S===5----|-(5)-------5---5----3--o||
|----------------------------------|-------------------------||
|
|  ~~~~~~~                                     ~~
|                   |--3---|
|  Q    Q     S  S  Q      E  S  S    S  S S S Q.    E  Q
|----------------------------------|-------------------------||
|----------------------------------|------------------------o||
|----------------------------------|-------------------------||
|-10---10----10-12-12b18r====12-10-|-12----7-9-7-----7------||
|----------------------------------|------------------------o||
|----------------------------------|-------------------------||


  G5
  Gtrs I, II
  Q  E E Q  E E   S S S S q  H
|---------------|-----------------*|
|---------------|-----------------*|
|---------------|-----------------*|
|---------------|-----------------*|
|-7----3-3------|-----------------*|
|-5-----------0-|-3-3-3-3-3-------*|



Duration Legend
---------------
W - whole; H - half; Q - quarter; E - 8th; S - 16th; T - 32nd; X - 64th; a - acciaccatura
+ - note tied to previous; . - note dotted; .. - note double dotted
Uncapitalized letters represent notes that are staccato (1/2 duration)
Irregular groupings are notated above the duration line
Duration letters will always appear directly above the note/fret number it represents the
duration for.  Duration letters with no fret number below them represent rests.  Multi-
bar rests are notated in the form Wxn, where n is the number of bars to rest for.  Low
melody durations appear below the staff

Tablature Legend
----------------
 h   - hammer-on
 p   - pull-off
 b   - bend
 pb  - pre-bend
 r   - bend release (if no number after the r, then release immediately)
 /  - slide into or out of (from/to "nowhere")
 s   - legato slide
 S   - shift slide
 - natural harmonic
[n]  - artificial harmonic
n(n) - tapped harmonic
 ~   - vibrato
 tr  - trill
 T   - tap
 TP  - trem. picking
 PM  - palm muting
n/  - tremolo bar dip; n = amount to dip
 n  - tremolo bar down
 n/  - tremolo bar up
/n  - tremolo bar inverted dip
 =   - hold bend; also acts as connecting device for hammers/pulls
  - volume swell (louder/softer)
 x   - on rhythm slash represents muted slash
 o   - on rhythm slash represents single note slash

Misc Legend
-----------
 |  - bar
||  - double bar
||o - repeat start
o|| - repeat end
*|  - double bar (ending)
 :  - bar (freetime)
 $  - Segno
 &  - Coda
Tempo markers -  = BPM(8/16=s8/s16), where s8 = swing 8ths, s16 = swing 16ths



 
 
Corrosion Of Conformity - Clean My Wounds Tab :: indexed at Ultimate Guitar.
Clean My Wounds tabs @ 911Tabs
People who played Corrosion Of Conformity - Clean My Wounds Tab also played these songs by Corrosion Of Conformity:
Stare Too Long Chords, Shelter Chords, Stare Too Long Tab, Albatross Tab, In The Arms Of God Tab, Clean My Wounds Tab

Quick tip, so you can enjoy Clean My Wounds Tab even more:

Try out the AutoScroller option ... It scrolls the page for you, so you can totally focus on nailing that solo. You can choose among different speeds using your mouse or your keyboard (keys 0, 1, 2 and 3).

Show us your talent, perform Clean My Wounds Tab!

Here you can post a video or audio performance. Tell me more ...
Where can we find your performance? Tell me more ...
Your comment:
Please, log in to post your performance.