Artists by letter: A B C D E F G H I J K L M N O P Q R S T U V W X Y Z 0-9

 
Confessions Tab
Dallas Green

Confessions


Capo 2nd fret

Tuning - high to low

E
B
F#
D
B
E

Main Riff Verse

E----0--------0--------0---0--0--0-------------------------------------------|
B----0--------0--------0---3--3--0-------------------------------------------|
F----0--------0--------3---3--3--3-------------------------------------------|
D----2/4/2----0--------0---0--0--0-------------------------------------------|
B----0-----------------0---0--0--0-------------------------------------------|
E----------------0h2h3-3---3--3--3-------------------------------------------|

Chorus


E---------0------0----0-----------------------------------------------------|
B---------0------0----0-----------------------------------------------------|
F---------0------0----5-----------------------------------------------------|
D---------9------7----5-----------------------------------------------------|
B---------0------0----0-----------------------------------------------------|
E---------7------5----3-----------------------------------------------------|

Solo part after chorus

E---------0-------------0-0------------------------0--------------------|
B---------0---/3-2-0----0-0-------/53/2p0---------0--------------------|
F---------0-----------3-3-3------------------0-----3--------------------|
D---------0-------------0-0------------------------0--------------------|
B---------0-------------0-0------------------------0--------------------|
E-----------------------5-5------------------------3--------------------|


Great song.  This is my first tab so any feedback would be great.

 
 
City And Colour - Confessions Tab :: indexed at Ultimate Guitar.
Confessions tabs @ 911Tabs

Quick tip, so you can enjoy Confessions Tab even more:

You might want to transpose the song if it is too high or too low for you to sing. Just click the desired option while playing a song and all the chords will automatically be transponded into a new key.

Show us your talent, perform Confessions Tab!

Here you can post a video or audio performance. Tell me more ...
Where can we find your performance? Tell me more ...
Your comment:
Please, log in to post your performance.