Artists by letter: A B C D E F G H I J K L M N O P Q R S T U V W X Y Z 0-9

 
Recipe For Disaster Bass Tab
------------------------------------------------------------------------------
		   RECIPE FOR DISASTER - Career Suicide
------------------------------------------------------------------------------

Tabbed By : Dann

Tuning: Standard

INTRO
G|---------------------------------------------------------------------------|
D|---------------------------------------------------------------------------|
A|------3-3-333-------3-3-333-----3-3-333-----3-3-333------------------------|
E|--5-3-----------5-3---------5-3---------5-3--------------------------------|

VERSE
G|---------------------------------------------------------------------------|
D|--------3------------------------------------------------------------------|
A|--5-5-5---3-3-3------------------------------------------------------------|
E|----------------6-3-3-3-3-6-6-6-6------------------------------------------|

FILL 1
G|---------------------------------------------------------------------------|
D|--------------3-5----------------------3-5---------------------------------|
A|------3-3-333-----5-5-555------3-3-333-----5-5-555-------------------------|
E|--5-3----------------------5-3---------------------------------------------|

CHORUS
G|---------------------------------------------------------------------------|
D|----------3-3-------------5-5----------------------------------------------|
A|--3-3-3-3-----3-3-5-5-5-5-----5-5-8-8-8-8-8-8-8-8-10-10-10-10-10-10-10-10--|
E|---------------------------------------------------------------------------|

BRIDGE
G|---------------------------------------------------------------------------|
D|--7-7--------------7-7--------------7-7--------------7-7-------------------|
A|------5-5--------------5-5--------------5-5--------------5-5---------------|
E|----------8-88-888---------8-88-888---------8-88-888---------8-88-888------|

BRIDGE CONT.
G|---------------------------------------------------------------------------|
D|----7------------7------------7------------7-------------------------------|
A|--5---7-7-777--5---7-7-777--5---7-7-777--5---7-7-777-----------------------|
E|---------------------------------------------------------------------------|

FILL 2
G|--------------------7/9-9-9-9-7/9-----------------------------------------|
D|---------------------------------------------------------------------------|
A|--5/7-7-777-7-7-777--------------------------------------------------------|
E|---------------------------------------------------------------------------|

FILL 3
G|---------------------------------------------------------------------------|
D|-------------5-7----------------------5-7----------------------------------|
A|-----5-5-555-----7-7-777------5-5-555-----7-7-777--------------------------|
E|-7-5----------------------7-5----------------------------------------------|

ENDS ON
G|----------|
D|----------|
A|----------|
E|--5----5--|




INTRO
VERSE  X4
FILL 1 X4
CHORUS
VERSE  X4
FILL 1 X4
CHORUS
BRIDGE
FILL 2
FILL 3
FILL 1
CHORUS

| /  slide up
|   slide down
| h  hammer-on
| p  pull-off
| ~  vibrato
| +  harmonic
| x  Mute note
==============================================================================

Band website: http://www.careersuicide.net/

Features Fucked Up's Jonah Falco on guitar

 
 
Career Suicide - Recipe For Disaster Bass Tab :: indexed at Ultimate Guitar.
Recipe For Disaster Bass tabs @ 911Tabs

Quick tip, so you can enjoy Recipe For Disaster Bass Tab even more:

After the registration (which takes just 10 seconds, remember?) you will be able to use your profile - your very own piece of YourChords.com.

Show us your talent, perform Recipe For Disaster Bass Tab!

Here you can post a video or audio performance. Tell me more ...
Where can we find your performance? Tell me more ...
Your comment:
Please, log in to post your performance.