Artists by letter: A B C D E F G H I J K L M N O P Q R S T U V W X Y Z 0-9

 
I Me Mine Tab
Once upon a time, or maybe twice; I was seeking for this song on the web, and I just got
poor transcription and I didn't like it. One day I found this little one and I think 
great.

Well, there are 3 guitars in this transcription:
	#1  Electric Guitar W/Disto
	#2  Electric Guitar W/Disto
	#3  Acustic Guitar

You can strum the written chords or you can play them with a Keyboard.
There are also some blues riffs, but don't worry they're not difficult.
...Oh, and Beware, sometimes I wrote riffs from two different guitars on the same tab 
you will understand this when you see it.

NOTE: If you are going to copy this transcription, don't forget to give me the credits


INSTRUCTIONS

5~~  play fret five with vibrato
5/7  play fret five, slide up to fret seven
7/5  play fret seven, slide down to fret five
5b7  play fret five and bend the string to reach the pitch of fret seven
7r5  release string from bend done
5h7  hammer-on from fret five to fret seven
7p5  pull-off from fret seven to fret five
//5  slide up to fret five from undefined, judge by ear
5//  play fret five, slide down/up (depending) to undefined, judge by ear
(5)  play it almost unhearable

I, Me, Mine (George Harrison)

INTRO:

  Am                      D                        G           E

  Guitar #1 (w/disto)
|--------|------------------|----------|--8--10--10b11--|--810--------|
|--------|------------------|-8-10-----|-----------------|--------10~~~~|
|--------|--------5h7--7/9--|----------|-----------------|--------------|
|--------|--5h7-------------|----------|-----------------|--------------|
|--------|------------------|----------|-----------------|--------------|
|--------|------------------|----------|-----------------|--------------|
| Guitar #2 (w/disto)       |          |                 |              |
|--------|------------------|----------|-----------------|--------------|
|--------|------------------|----------|-----------------|--------------|
|--------|------------------|----------|-----------------|--------------|
|--------|------------------|----------|-----------------|-(5)(7)-------|
|--5h7~~-|------------------|-----7p5--|--------5--------|--------(5)---|
|--5~~~~-|------------------|----------|8~~~~------2h3---|--------------|


VERSE:

Am               D
All through the day

      G	     E         Am
| Guitar #3                      || Guitar #2 (w/disto)                 |
|------------|------------|------||--------------|----------------------|
|------------|------------|------||--------------|----------------------|
|------------|------------|------||--------------|----------------------|
|------------|----------9|7~~~--||--5/7-----10--|----------------------|
|----------5-|-7-9/11-----|------||--5/7---------|-7/5------------------|
|----3-5/7---|------------|------||--------------|--------8/10---5~~~~--|

I me mine, I me mine, I me mine

Am               D
All through the night

      G          E         Am
  Guitar #3
|------------|------------|------|
|------------|------------|------|
|------------|------------|------|
|------------|----------9|-7~~~-|
|----------5-|-7-9/11-----|------|
|----3-5/7---|------------|------|

I me mine, I me mine, I me mine

PRE-CHORUS:

            Dm             Dm/E         Dm/F           D3
  Guitar #3
|---------|---------|-----------|--------------|---------|
|---------|---------|-----------|--------------|---------|
|---------|---------|-----------|--------------|---------|
|---------|---------|-----------|--------------|---5-----|
|---------|---5-----|---------7-|--------8-----|---------|
|---------|---------|-----------|--------------|---------|

Now they're frightened of leaving it, Everyone's reading it

E          Esus4         Esus6
  Guitar #3
|---------|---------|--------|
|---------|---------|--------|
|---------|---------|--------|
|--6------|-7-------|------9-|
|---------|---------|--------|
|---------|---------|--------|

Coming on strong all the time


Am   AmMaj7     Am7  D9     Fmaj7
| Guitar #3                       || Guitar #1                  |
|---|---------|----|---|----------||----------------------------|
|---|---------|----|---|----------||----------------------------|
|---|---------|----|---|----------||----------------------------|
|-7-|-6-------|--5-|-4-|------3---||-------/-10-10-10--10-10-//-|
|---|---------|----|---|----------||-------/-8--8--8---8--8--//-|
|---|---------|----|---|----------||----------------------------|

All through the day;  I, me, mine...

CHORUS:

    Am
  Guitar #1 (w/disto)
|-----------|----------------------|-----------|------------------------|
|-----------|----------------------|-----------|------------------------|
|-----------|----------------------|-----------|------------------------|
|-----------|-----------7-----7----|-----------|-------------7-----7----|
|77-99-77-99|-77--99--9---7h9---7--|77-99-77-99|-7-7-9-9--9---7h9---7--|
|55-55-55-55|-55--55---------------|55-55-55-55|-5-5-5-5---------------|
| Guitar #2 (w/disto)              |           |                        |
|-----------|---55---55---55-------|-----------|---55---55---55---------|
|-----------|---55---55---55-------|-----------|---55---55---55---------|
|-----------|7b8--7b8--7b8--7b8r7-5|-----------|7b8--7b8--7b8--7b8r7-5--|
|-----------|----------------------|-----------|-----------------------7|
|-----------|----------------------|-----------|------------------------|
|-----------|----------------------|-----------|------------------------|

    I  me me  mine                  I  me me  mine

   Dm						Am
  Guitar #1 (w/disto)
|-----------|--------------------|-----------|----------------------|
|-----------|--------------------|-----------|----------------------|
|-----------|--------------------|-----------|----------------------|
|77-99-77-99|7-9p7-7-9p7-7-9p7-77|-----------|------------7-----7---|
|55-55-55-55|5----5-----5-----55|77-99-77-99|-77--99---9---7h9---7-|
|-----------|--------------------|55-55-55-55|-55--55---------------|
| Guitar #2 (w/disto)            |           |                      |
|-----------|--888-888--888-8//|-----------|---55---55------------|
|-----------|--666--666--666 6//|-----------|---55---55------------|
|-----------|--------------------|-----------|7b8--7b8--7b8r7-5-7-5-|
|-----------|--------------------|-----------|----------------------|
|-----------|--------------------|-----------|----------------------|
|-----------|--------------------|-----------|----------------------|

    I  me me  mine                   I  me me  mine

   E7
  Guitar #1 (w/disto)
|--------------------|-------------------------|
|--------------------|-------------------------|
|--------------------|-------------------------|
|--------------------|----------//-9----9-9//-|
|-2-2--4-4--2-2--4-4-|-2-2--4-4-//-7----7-7//-|
|-0-0--0-0--0-0--0-0-|-0-0--0-0----------------|
| Guitar #2 (w/disto)|                         |
|--------------5-----|-------------------------|
|----------------8p5-|---------5---------------|
|-7b9----------------|-7--5-7------7p5--------|
|--------------------|-------------------7~~~--|
|--------------------|-------------------------|
|--------------------|-------------------------|


VERSE:

Am          D
  Guitar #2 (w/disto)			   * 	  (This last note has to be
|---|-------|-------------|---------|----|  played with the other one
|---|-------|-------------|---------|----|  signed)
|---|-------|------5------|---------|----|
|---|-------|-5/7--5-7/5-|---------|----|
|---|-------|-5/7-----7/5|-3h5~~/7-|----|
|---|-------|-------------|---------|-3~~|
                                      *
All  I can hear

      G	     E         Am
  Guitar #3
|------------|------------|---------|----------|------|
|------------|------------|---------|----------|------|
|------------|------------|---------|----------|------|
|------------|----------9|7~~~-----|----------|------|
|----------5-|-7-9/11-----|------7--|--------7-|------|
|----3-5/7---|------------|---------|-8--10----|-5~~--|
     * (I mean this one)
I me mine, I me mine, I me mine

Am          D
Even those tears

      G          E         Am
  Guitar #3
|------------|------------|---------|----------|
|------------|------------|---------|----------|
|------------|------------|---------|----------|
|------------|----------9|7~~~-----|----------|
|----------5-|-7-9/11-----|------7--|--------7-|
|----3-5/7---|------------|---------|-8--10----|

I me mine, I me mine, I me mine


PRE-CHORUS: (Play it just as you played it the last before)

CHORUS: (Play it just as you played it the last before)


VERSE: (Play it just as you played it the last before)

(Lyrics)
All I can hear
I me mine, I me mine, I me mine
Even those tears
I me mine, I me mine, I me mine


PRE-CHORUS: (Play it just as you played it the last before but change the last part for 
one)

Am   AmMaj7     Am7  D9     Fmaj7
  Guitar #3
|---|---------|----|---|----------|
|---|---------|----|---|----------|
|---|---------|----|---|----------|
|-7-|-6-------|--5-|-4-|------3---|
|---|---------|----|---|----------|
|---|---------|----|---|----------|

All through the life; I, me, mine...


CHORD DEFINITION:

D       XX0232
Dm      XX0231
Dm/E    XX2231
Dm/F    XX3231
D3      XX0031
E       022100
Esus4   022200
Esus6   022X00  or  022400
E7      020100
Fmaj7   XX3210
G       320011
Am      X02210  or  577555
AmMaj7  X02110  or  576555
Am7     X02010  or  575555
D9      X04210  or  5X455X

George Harrison, this song is something magical, but also realistic song about feelings 
the last days of Beatles. This was the last known Beatles song ever taped. I love it, 
in peace, George.

 
 
Beatles - I Me Mine Tab :: indexed at Ultimate Guitar.
I Me Mine tabs @ 911Tabs

About the artist behind I Me Mine Tab:

The Beatles were a pop and rock group from Liverpool, England formed in 1960. Primarily consisting of John Lennon (rhythm guitar, vocals), Paul McCartney (bass guitar, vocals), George Harrison (lead guitar, vocals), and Ringo Starr (drums, vocals) throughout their career, The Beatles are recognised for leading the mid-1960s musical "British Invasion" into the United States. Although their initial musical style was rooted in 1950s rock and roll and homegrown skiffle, the group explored genres ranging from Tin Pan Alley to psychedelic rock. Their clothes, styles, and statements made them trend-setters, while their growing social awareness saw their influence extend into the social and cultural revolutions of the 1960s. After the band broke up in 1970, all four members embarked on solo careers.

The Beatles are one of the most commercially successful and critically acclaimed bands in the history of popular music. The Beatles are the best-selling musical group in history. In the United Kingdom, The Beatles released more than 40 different singles, albums, and EPs that reached number one, earning more number one albums (15) than any other group in UK chart history. This commercial success was repeated in many other countries; their record company, EMI, estimated that by 1985 they had sold over one billion records worldwide.[1] According to the Recording Industry Association of America, The Beatles have sold more albums in the United States than any other band.[2] In 2004, Rolling Stone magazine ranked The Beatles number one on its list of 100 Greatest Rock & Roll Artists of All Time. According to that same magazine, The Beatles' innovative music and cultural impact helped define the 1960s, and their influence on pop culture is still evident today.

Indexed at Wikipedia.

Show us your talent, perform I Me Mine Tab!

Here you can post a video or audio performance. Tell me more ...
Where can we find your performance? Tell me more ...
Your comment:
Please, log in to post your performance.