Artists by letter: A B C D E F G H I J K L M N O P Q R S T U V W X Y Z 0-9

 
Helter Skelter Tab
    ---------------------------------------------------------

    THE BATLES - HELTER SKELTER (Lennon & McCartney) From the
                 WHITE ALBUM. Released on 22nd November 1968.

    ---------------------------------------------------------

    Tabbed by:PJVillanueva

    HELTER SKELTER refers to a spiral slide around a tower
    which is still a popular fairground atraction in England.
    The song was originally a 24 minute engendrum with a lot
    of free noise at the end, which was later cut to 04:29.
    In the Coda of this version, John can be heard playing a
    sax in a mischievous manner. Mal Evans played a trumpet
    in a very similar fashion (they can be heard from 02:55,
    03:08 & 03:20). John played lead guitar too, Paul played
    lead guitar and bass, George played rhythm guitar and as
    always Ringo was on drums. You will agree that it'd have
    been odd tabbing John's childish ecstatic sax squeals and
    Mal's fake gypsy trumpet as well as the second ending.


    When I get to the bottom
    I go back to the top of the slide
    Where I stop and I turn
    And I go for a ride
    Till I get to the bottom and I see you again
    Yeah, yeah, yeah

    Do you don't you want me to love you
    I'm coming down fast but I'm miles above you
    Tell me tell me tell me  come on tell me the answer
    And you may be a lover but you ain't no dancer

    Go helter skelter
    Helter skelter helter skelter
    Yeah  Wooooooooh

    I will you won't you want me to make you
    I'm coming down fast but don't let me break you
    Tell me tell me tell me the answer
    You may be a lover but you ain't no dancer

    Look out
    Helter skelter helter skelter
    Helter skelter Yeah  Wooooooohh
    Look out cause here she comes

    When I get to the bottom
    I go back to the top of the slide
    Where I stop and I turn
    And I go for a ride
    Till I get to the bottom and I see you again
    Yeah, yeah, yeah

    Well will you won't you want me to make you
    I'm coming down fast but don't let me break you
    Tell me tell me tell me your answer
    You may be a lover but you ain't no dancer

    Look out
    Helter skelter helter skelter
    Helter skelter Yeah  Woooooohh

    Helter Skelter
    She's coming down fast
    Yes she is
    Yes she is
    coming down fast

    Uuhuh Helter Skelter
    Woooooooooooooohh!


  e|------- ------- ------- -------|------- ------- ------- ----0--|
  B|-------------------------------|---------------------------123|
  G|-------------------------------|-------------------------------|
  D|-------------------------------|-------------------------------|
  A|-------------------------------|-------------------------------|
  E|-------------------------------|-------------------------------|

  e|0-0-0-0 0-0-0-0 0-0-0-0 0-0-0-0|0-0-0-0 0-0-0-0 0-0-0-0 0-0-0-0|
  B|3-3-3-3-3-3-3-3-3-3-3-3-3-3-3-3|3-3-3-3-3-3-3-3-3-3-3-3-3-3-3-3|
  G|-------------------------------|-------------------------------|
  D|-------------------------------|-------------------------------|
  A|-------------------------------|-------------------------------|
  E|-------------------------------|-------------------------------|
                                When    to  bottom  back  the of  slide
                                  I get   the   I go    to  top the


  e|0-0-0-0 0-0-0-0 0-0-0-0 0-0-0-0|0-0-0-0 0-0-0-0 0-0-0-0 0---3--|
  B|2-2-2-2-2-2-2-2-2-2-2-2-2-2-2-2|1-1-1-1-1-1-1-1-1-1-1-1-1---3--|
  G|-------------------------------|----------------------------4--|
  D|-------------------------------|----------------------------5--|
  A|-------------------------------|----------------------------5--|
  E|-------------------------------|----------------------------3--|
        Where and I turn  I go  a ride  Till    to  bottom  see again
          I stop        and   for         I get   the   and   you
                                                          I

    00:12

  e|------- 3---3-3 ------- 3-----3|------- 0-----0 ------- 0---0--|
  B|--------3---3-3---------3-----3|--------0-----0---------0---0--|
  G|--------4---4-4---------4-----4|--------1-----1---------1---1--|
  D|5---5---5---5-5-5---5---5-----5|2---2---2-----2-2---2---2---2--|
  A|5---5---5---5-5-5---5---5-----5|2---2---2-----2-2---2---2---2--|
  E|3---3---3---3-3-3---3---3-----3|0---0---0-----0-0---0---0---0--|
                            yeah yeah yeah
                                yeah

  e|----0-- ----0-- ------- 0------|----0-- 0---0-- ----0-- 0---0--|
  B|----0-------0-----------0------|----0---0---0-------0---0---0--|
  G|----1-------1-----------1------|----1---1---1-------1---1---1--|
  D|2---2---2---2---2---2---2------|2---2---2---2-------2---2---2--|
  A|2---2---2---2---2---2---2------|2---2---2---2---2---2---2---2--|
  E|0---0---0---0---0---0---0------|0---0---0---0---0---0---0---0--|
    Do  you don't want  to    you                                 I'm
                you   me  love


    00:23

  e|----0-- ----0-- ----0-- ----0--|----0-- ----0-- ------- 0------|
  B|----0-------0-------0-------0--|----0-------0-----------0------|
  G|----1-------1-------1-------1--|----1-------1-----------1------|
  D|2---2---2---2---2---2---2---2--|2---2---2---2---2---2---2---2--|
  A|2---2---2---2---2---2---2---2--|2---2---2---2---2---2---2---2--|
  E|0---0---0---0---0---0---0---0--|0---0---0---0---0---0---0---0--|
    coming  fast  I'm   above you
        down    but miles
    Aaaaaaaaaaaaaaaaaaaaaaaaaaaaww

  e|----0-- ------- 0------ ----0--|3---3-- 3-----3 3---3-- 3---3--|
  B|----0-----------0-----------0--|3---3---3-----3-3---3---3---3--|
  G|----1-----------1-----------1--|4---4---4-----4-4---4---4---4--|
  D|2---2---2---2---2---2---2---2--|5---5---5-----5-5---5---5---5--|
  A|2---2---2---2---2---2---2---2--|5---5---5-----5-5---5---5---5--|
  E|0---0---0---0---0---0---0---0--|3---3---3-----3-3---3---3---3--|
    Tell    tell  tell      come  tell  me  answer              And
        me      me    me      on          the                     you
    Aaaaaaaaaaaaaaaaaaaaaaaaaaaaaaaaaaaaaaaaaaaaaaaaaaaaaaaaaaaaaaa

  e|5---5-- 5------ 5------ -------|----0-- ----0-- ----0-- -------|
  B|5---5---5-------5-----------0--|----0-------0-------0----------|
  G|6---6---6-------6-----------0--|----1-------1-------1----------|
  D|7---7---7-------7-----------0--|2---2---2---2---2---2---2---2--|
  A|7---7---7-------7--------------|2---2---2---2---2---2---2---2--|
  E|5---5---5-------5--------------|0---0---0---0---0---0---0---0--|

  e|------- ------- ------- -------|------- ------- ------- -------|
  B|-------------------------------|-------------------------------|
  G|-------------------------------|-------------------------------|
  D|-------------------------------|-------------------------------|
  A|-------------------------------|----------------------------7-|
  E|-------------------------------|-------------------------------|
    may be  lover you     no  dancer                            Go
          a     but ain't
    aaaaaaaawww                         Da  da  da  da  da  da  da


    00:41

  e|0---0-- ----0-- 0---0-- ----0--|0---0-- ----0-- 0---0-- ----0--|
  B|2---2-------2---2---2-------2--|0---0-------0---0---0-------0--|
  G|2---2---2---2---2---2---2---2--|1---1-------1---1---1-------1--|
  D|2---2---2---2---2---2---2---2--|2---2---2---2---2---2---2---2--|
  A|0---0---0---0---0---0---0---0--|2---2---2---2---2---2---2---2--|
  E|-------------------------------|0---0---0---0---0---0---0---0--|

  e|------- ------- ------- -------|------- ------- ------- -------|
  B|-------------------------------|-------------------------------|
  G|----------------0--------------|-------------------------------|
  D|------------------4-2-0--------|----------------0--------------|
  A|0---0---0---0-----------4-2-0--|------------------4-2-0--------|
  E|-------------------------------|0---0---0---0-0---------4-2-0--|
    Helter                          helter
          skelter                         skelter

                                                    x x   x X x X x

  e|0---0-- ----0-- 0---0-- ----0--|0------ ------- ------- -------|
  B|2---2-------2---2---2-------2--|0------------------------------|
  G|2---2---2---2---2---2---2---2--|1------------------------------|
  D|2---2---2---2---2---2---2---2--|2------------------------------|
  A|0---0---0---0---0---0---0---0--|2------------------------------|
  E|-------------------------------|0------------------------------|

  e|------- ------- ------- -------|----0-0 0-0-0-0 0-0-0-0 0-0-0-0|
  B|-------------------------------|----5-5-5-6-6-6-6-7-7-7-7-7-8-8|
  G|----------------0--------------|-----.........--B-..........---|
  D|------------------4-2-0--------|-------------------------------|
  A|0---0---0---0-----------4-2-0--|-------------------------------|
  E|-------------------------------|0------------------------------|
    Helter                          Yeah                        Woo
          skelter

    X
    00:52

  e|----0-- ----0-- ----0-- ----0--|----0-- ----0-- ------- 0------|
  B|----0-------0-------0-------0--|----0-------0-----------0------|
  G|----1-------1-------1-------1--|----1-------1-----------1------|
  D|2---2---2---2---2---2---2---2--|2---2---2---2---2---2---2---2--|
  A|2---2---2---2---2---2---2---2--|2---2---2---2---2---2---2---2--|
  E|0---0---0---0---0---0---0---0--|0---0---0---0---0---0---0---0--|

  e|------- ------- ------- -------|------- ------- ------- -------|
  B|-------------------------------|-------------------------------|
  G|-------------------------------|-------------------------------|
  D|-------------------------------|-------------------------------|
  A|-------------------------------|-------------------------------|
  E|0------------------------------|-------------------------------|
    ooooooooooooohhh                                              I

    00:58

  e|----0-- ----0-- ----0-- ----0--|----0-- ----0-- ----0-- ----0--|
  B|----0-------0-------0-------0--|----0-------0-------0-------0--|
  G|----1-------1-------1-------1--|----1-------1-------1-------1--|
  D|2---2---2---2---2---2---2---2--|2---2---2---2---2---2---2---2--|
  A|2---2---2---2---2---2---2---2--|2---2---2---2---2---2---2---2--|
  E|0---0---0---0---0---0---0---0--|0---0---0---0---0---0---0---0--|
    will    won't want  to    you                                 I'm
        you     you   me  make
                                    Aaaaaaaaaaaaaaaaaaaaaaaaaaawwww

  e|----0-- ----0-- ----0-- ----0--|----0-- ----0-- ----0-- ----0--|
  B|----0-------0-------0-------0--|----0-------0-------0-------0--|
  G|----1-------1-------1-------1--|----1-------1-------1-------1--|
  D|2---2---2---2---2---2---2---2--|2---2---2---2---2---2---2---2--|
  A|2---2---2---2---2---2---2---2--|2---2---2---2---2---2---2---2--|
  E|0---0---0---0---0---0---0---0--|0---0---0---0---0---0---0---0--|
    coming  fast  don   me    you
        down    but   let break
                                    Aaaaaaaaaaaaaaaaaaaaaaaaaaaaaaa

  e|3---3-- 3------ 3---3-- 3------|5---5-- ----5-- ----5-- --5-5--|
  B|3---3---3-------3---3---3------|5---5-------5-------5-----5-5--|
  G|4---4---4-------4---4---4------|6---6-------6-------6-----6-6--|
  D|5---5---5---5---5---5---5---5--|7---7-------7-------7-----7-7--|
  A|5---5---5---5---5---5---5---5--|7---7-------7-------7-----7-7--|
  E|3---3---3---3---3---3---3---3--|5---5-------5-------5-----5-5--|
    Tell    tell  tell    the     you   be  lover you no  dancer
        me      me      me  answer  may   a     but ain't
    aaaaaaaaaaaaaaaaaaaaaaaaaaaaaaaaaaaaaaaawwww


  e|------- 0------ ----0-- ----0--|
  B|--------0-----------0-------0--|
  G|--------1-----------1-------1--|
  D|2---2---2---2---2---2---2---2--|
  A|2---2---2---2---2---2---2---2--|
  E|0---0---0---0---0---0---0---0--|
                        Look
                          out!
        Da  da  da  da  da  da  da

    01:18
    Helter skelter helter skelter
    Helter skelter  Wooooooommm


    01:29

  e|----0-- ----0-- ----0-- -------|----0-- 0------ 0---0-- 0------|
  B|----0-------0-------0----------|----0---0-------0---0---0------|
  G|----1-------1-------1----------|----1---1-------1---1---1------|
  D|2---2---2---2---2---2---2------|2---2---2---2---2---2---2------|
  A|2---2---2---2---2---2---2------|2---2---2---2---2---2---2------|
  E|0---0---0---0---0---0---0------|0---0---0---0---0---0---0------|

  e|------- ------- ------- -------|------- ------- 12---12 -------|
  B|-------------------------------|----------------12---12--------|
  G|-------------------------------|-------------------------------|
  D|-------------------------------|-------------------------------|
  A|-------------------------------|-------------------------------|
  E|0------------------------------|-------------------------------|
            Look            cause comes
              out!            here
                                she


    01:35

  e|0---0-- 0---0-- ----0-- ----0--|0------ 0------ 0------ 0------|
  B|2---2---2---2-------2-------2--|0-------0-------0-------0------|
  G|2---2---2---2---2---2---2---2--|1-------1-------1-------1------|
  D|2---2---2---2---2---2---2---2--|2---2---2---2---2---x---2---2--|
  A|0---0---0---0---0---0---0---0--|2---2---2---2---2---x---2---2--|
  E|-------------------------------|0---0---0---0---0---x---0---0--|

  e|1517--- ------- ------- ---1517|1715--- ------- -----R- -------|
  B|--B--------------------------B-|--R------------17151715------12B
  G|-------------------------------|---------------B-R-B--1214R----|
  D|-------------------------------|------------------------B--14--|
  A|-------------------------------|-------------------------------|
  E|-------------------------------|-------------------------------|

  e|0---0-- 0---0-- 0------ 0------|0------ ------- ------- -------|
  B|2---2---2---2---2-------2------|0------------------------------|
  G|2---2---2---2---2---2---2------|1------------------------------|
  D|2---2---2---2---2---2---2------|2------------------------------|
  A|0---0---0---0---0---0---0------|2------------------------------|
  E|-------------------------------|0------------------------------|

  e|------- ------- ------- B------|------- ------- ------- -------|
  B|14--------------------1517-----|-------------------------------|
  G|--------------B14121412-----12-|-------------------------------|
  D|-----------------R-B-R---------|14-~---------------------------|
  A|-------------------------------|-------------------------------|
  E|-------------------------------|-------------------------------|
                                                                When
                                                                  I


    01:46

  e|0-0-0-0 0-0-0-- 0-0-0-0 0-0-0--|0-0-0-0 0-0-0-0 0-0-0-0 0-0-0--|
  B|3-3-3-3-3-3-3---3-3-3-3-3-3-3--|2-2-2-2-2-2-2-2-2-2-2-2-2-2-2--|
  G|-------------------------------|-------------------------------|
  D|-------------------------------|-------------------------------|
  A|-------------------------------|-------------------------------|
  E|-------------------------------|-------------------------------|
        to  bottom  back  the of  slide where and I turn  I go  a ride
    get   the   I go    to  top the       I stop        and   for


  e|0-0-0-0 0-0-0-0 0-0-0-0 0------|3---3-- 3---3-- 3-----3 3---3--|
  B|1-1-1-1-1-1-1-1-1-1-1-1-1---0--|3---3---3---3---3-----3-3---3--|
  G|----------------------------0--|4---4---4---4---4-----4-4---4--|
  D|----------------------------0--|5---5---5---5---5-----5-5---5--|
  A|-------------------------------|5---5---5---5---5-----5-5---5--|
  E|-------------------------------|3---3---3---3---3-----3-3---3--|
        and     to  bottom  see again                       Yeah  yeah
          I get   the   and   you                             yeah
                          I
                                    Yeaaaaaaaaaaaaaaaaaaaaaaaaaaahh

  e|----0-- 0---0-- ----0-- 0---0--|
  B|----0---0---0-------0---0---0--|
  G|----1---1---1-------1---1---1--|
  D|2---2---2---2---2---2---2---2--|
  A|2---2---2---2---2---2---2---2--|
  E|0---0---0---0---0---0---0---0--|
                                  Well

    Yeaaaaaaaaaaaaaaaaaaaaaaaaaaahh


    02:01

  e|----0-- 0---0-- ----0-- 0---0--|----0-- 0---0-- ----0-- 0---0--|
  B|----0---0---0-------0---0---0--|----0---0---0-------0---0---0--|
  G|----1---1---1-------1---1---1--|----1---1---1-------1---1---1--|
  D|2---2---2---2---2---2---2---2--|2---2---2---2---2---2---2---2--|
  A|2---2---2---2---2---2---2---2--|2---2---2---2---2---2---2---2--|
  E|0---0---0---0---0---0---0---0--|0---0---0---0---0---0---0---0--|

  e|------- ------- ------- -------|----B-- -R----- ------- -------|
  B|-------------------------------|172022-22201717-15--------R---|
  G|-------------------------------|------------19----1414B16161412|
  D|-------------------------------|-------------------14----------|
  A|-------------------------------|-------------------------------|
  E|-------------------------------|-------------------------------|
    Do  you don't want  to    you                                 I'm
                you       make
                                    Aaaaaaaaaaaaaaaaaaaaaaaaaaaaaww

  e|----0-- 0---0-- ----0-- 0---0--|----0-- 0---0-- ----0-- 0---0--|
  B|----0---0---0-------0---0---0--|----0---0---0-------0---0---0--|
  G|----1---1---1-------1---1---1--|----1---1---1-------1---1---1--|
  D|2---2---2---2---2---2---2---2--|2---2---2---2---2---2---2---2--|
  A|2---2---2---2---2---2---2---2--|2---2---2---2---2---2---2---2--|
  E|0---0---0---0---0---0---0---0--|0---0---0---0---0---0---0---0--|

  e|------- ------- ------- -------|------- ------- ------- -------|
  B|-------------12----------------|-------------------------------|
  G|-------------12----------------|-------------------------------|
  D|12--14-----14------------------|-------------------------------|
  A|-------------------------------|-------------------------------|
  E|-------------------------------|-------------------------------|
    coming  fast  don't me        you
        down    but  let  break
                                    Aaaaaaaaaaaaaaaaaaaaaaaaaaaaaaa

  e|3---3-- 3---3-- 3---3-- 3---3--|5---5-- ----5-- ----5-- --5-5--|
  B|3---3---3---3---3---3---3---3--|5---5-------5-------5-----5-5--|
  G|4---4---4---4---4---4---4---4--|6---6-------6-------6-----6-6--|
  D|5---5---5---5---5---5---5---5--|7---7-------7-------7-----7-7--|
  A|5---5---5---5---5---5---5---5--|7---7-------7-------7-----7-7--|
  E|3---3---3---3---3---3---3---3--|5---5-------5-------5-----5-5--|
    Tell    tell  tell    your    you   be  lover you   no    dancer
        me      me     me   answer  may   a     but ain't
    aaaaaaaaaaaaaaaaaaaaaaaaaaaaaaaaaaaawwww


  e|0---0-- 0---0-0 0---0-- 0---0--|
  B|0---0---0---0-0-0---0---0---0--|
  G|1---1---1---1-1-1---1---1---1--|
  D|2---2---2---2-2-2---2---2---2--|
  A|2---2---2---2-2-2---2---2---2--|
  E|0---0---0---0-0-0---0---0---0--|
                        Look
                          out!
        Da  da  da  da  da  da  da

    02:21

  e|0---0-- 0---0-0 0---0-- 0---0--|0---0-- 0---0-0 0---0-0 0---0--|
  B|2---2---2---2-2-2---2---2---2--|0---0---0---0-0-0---0-0-0---0--|
  G|2---2---2---2-2-2---2---2---2--|1---1---1---1-1-1---1-1-1---1--|
  D|2---2---2---2-2-2---2---2---2--|2---2---2---2-2-2---2-2-2---2--|
  A|0---0---0---0-0-0---0---0---0--|2---2---2---2-2-2---2-2-2---2--|
  E|-------------------------------|0---0---0---0-0-0---0-0-0---0--|

  e|------- ------- ------- -------|------- ------- ------- -------|
  B|-------------------------------|-------------------------------|
  G|----------------0--------------|-------------------------------|
  D|2---2---4---4-----4-2-0--------|----------------0--------------|
  A|0---0---0---0-----------4-2-0--|2---2---4---4-----4-2-0--------|
  E|-------------------------------|0---0---0---0-----------4-2-0--|
    Helter                          helter
          skelter                         skelter


                                                    x X   x X X x x

  e|0---0-- ----0-0 0---0-- ----0--|--2222222222222222222-- -------|
  B|2---2-------2-2-2---2-------2--|--0000000000000000000----------|
  G|2---2---2---2-2-2---2---2---2--|--1111111111111111111----------|
  D|2---2---2---2-2-2---2---2---2--|--2222222222222222222----------|
  A|0---0---0---0-0-0---0---0---0--|--2222222222222222222----------|
  E|-------------------------------|--0000000000000000000----------|

  e|------- ------- ------- -------|------- ------- ------- -------|
  B|-------------------------------|-------------------------------|
  G|----------------0--------------|-------------------------------|
  D|2---2---4---4-----4-2-0--------|-------------------------------|
  A|0---0---0---0-----------4-2-0--|-------------------------------|
  E|-------------------------------|0------------------------------|
    Helter                                              Look
          skelter                                         Out!

    X
    02:32

  e|----0-- 0---0-- ----0-- 0---0--|----0-- 0---0-- ----0-- 0---0--|
  B|----0---0---0-------0---0---0--|----0---0---0-------0---0---0--|
  G|----1---1---1-------1---1---1--|----1---1---1-------1---1---1--|
  D|2---2---2---2---2---2---2---2--|2---2---2---2---2---2---2---2--|
  A|2---2---2---2---2---2---2---2--|2---2---2---2---2---2---2---2--|
  E|0---0---0---0---0---0---0---0--|0---0---0---0---0---0---0---0--|

  e|------- ------- ------- -------|------- ------- ------- -------|
  B|-------------------------------|-------------------------------|
  G|-------------------------------|-------------------------------|
  D|-------------------------------|----------------0--------------|
  A|-------------------------------|------------------4-2-0--------|
  E|-------------------------------|0-----------------------4-2-0--|
      Helter                    She's   down
            skelter                 coming  fast

  e|----0-- 0---0-- ----0-- 0---0--|----0-- 0---0-- ----0-- 0---0--|
  B|----0---0---0-------0---0---0--|----0---0---0-------0---0---0--|
  G|----1---1---1-------1---1---1--|----1---1---1-------1---1---1--|
  D|2---2---2---2---2---2---2---2--|2---2---2---2---2---2---2---2--|
  A|2---2---2---2---2---2---2---2--|2---2---2---2---2---2---2---2--|
  E|0---0---0---0---0---0---0---0--|0---0---0---0---0---0---0---0--|

  e|------- ------- ------- -------|------- ------- ------- -------|
  B|-------------------------------|-------------------------------|
  G|--------1----------------------|-------------------------------|
  D|----------------0--------------|----------------0--------------|
  A|------------------4-2-0--------|------------------4-2-0--------|
  E|------------------------4-2-0--|------------------------4-2-0--|
    Yes       she                               Yes she is
                is


    02:44

  e|----0-- 0---0-- ----0-- 0---0--|----0-- 0---0-- ----0-- 0---0--|
  B|----0---0---0-------0---0---0--|----0---0---0-------0---0---0--|
  G|----1---1---1-------1---1---1--|----1---1---1-------1---1---1--|
  D|2---2---2---2---2---2---2---2--|2---2---2---2---2---2---2---2--|
  A|2---2---2---2---2---2---2---2--|2---2---2---2---2---2---2---2--|
  E|0---0---0---0---0---0---0---0--|0---0---0---0---0---0---0---0--|

  e|------- ------- ------- -------|------- ------- ------- -------|
  B|-------------------------------|-------------------------------|
  G|-------------------------------|-------------------------------|
  D|----------------0--------------|----------------0--------------|
  A|------------------4-2-0--------|------------------4-2-0--------|
  E|------------------------4-2-0--|------------------------4-2-0--|
    Slide guitar
  e|17--15 ------- ------- -------|------- ------- ------- -------|
  B|-----------17--15---12--10---|-------------------------------|
  G|------------------------------9|-7----------------------------|
  D|-------------------------------|------9--7--------------------|
  A|-------------------------------|-------------------------------|
  E|-------------------------------|-------------------------------|
                    coming  fast                        Uuhuh Helter
                        down                                   Skelter

  e|----0-- 0---0-- ----0-- 0---0--|----0-- 0---0-- ----0-- 0---0--|
  B|----0---0---0-------0---0---0--|----0---0---0-------0---0---0--|
  G|----1---1---1-------1---1---1--|----1---1---1-------1---1---1--|
  D|2---2---2---2---2---2---2---2--|2---2---2---2---2---2---2---2--|
  A|2---2---2---2---2---2---2---2--|2---2---2---2---2---2---2---2--|
  E|0---0---0---0---0---0---0---0--|0---0---0---0---0---0---0---0--|

  e|------- ------- ------- -------|------- ------- ------- -------|
  B|-------------------------------|-------------------------------|
  G|-------------------------------|-------------------------------|
  D|----------------0--------------|----------------0--------------|
  A|------------------4-2-0--------|------------------4-2-0--------|
  E|------------------------4-2-0--|------------------------4-2-0--|
                                                                Sax
  e|------- ------- ------- -------|------- ------- ------- -------|
  B|-------------------------------|-------------------------------|
  G|-------------------------------|----------------------------7-7|
  D|-------------------------------|-------------------------------|
  A|-------------------------------|-------------------------------|
  E|-------------------------------|-------------------------------|
                            Wooooooooooooooooooohh!

    02:55
   (.       x

  e|0--------------------------------------------------------------|
  B|0--------------------------------------------------------------|
  G|1--------------------------------------------------------------|
  D|2--------------------------------------------------------------|
  A|2--------------------------------------------------------------|
  E|0--------------------------------------------------------------|
                                                Slide guitar
  e|--------------------------------------------17---15---13---11--|
  B|--------------------------------------------17---15---13---11--|
  G|---------------------------------------------..............  .|
  D|---------------------------------------------------------------|
  A|---------------------------------------------------------------|
  E|---------------------------------------------------------------|

  e|---------------------------------------------------------------|
  B|---------------------------------------------------------------|
  G|7-7----------------8-------------8------------8----------8-----|
  D|---------------------------------------------------------------|
  A|---------------------------------------------------------------|
  E|---------------------------------------------------------------|

  e|---------------------------------------------------------------|
  B|---------------------------------------------------------------|
  G|---------------------------------------------------------------|
  D|---------------------------------------------------------------|
  A|---------------------------------------------------------------|
  E|---------------------------------------------------------------|

  e|-9---7---5---3-------------------------------------------------|
  B|-9---7---5---3-------------------------------------------------|
  G|.............--------------------------------------------------|
  D|---------------------------------------------------------------|
  A|---------------------------------------------------------------|
  E|---------------------------------------------------------------|

  e|--2222222222222222222------------------------------------------|
  B|--0000000000000000000------------------------------------------|
  G|--1111111111111111111..........................................|
  D|--2222222222222222222------------------------------------------|
  A|--2222222222222222222------------------------------------------|
  E|--0000000000000000000------------------------------------------|


    x   x   x   x x X x   x x X X X

  e|------- ------- ------- -------|
  B|-------------------------------|
  G|-------------------------------|
  D|-------------------------------|
  A|------------------------2P0----|
  E|----------------------------0--|


    03:11

  e|------- 0---0-- ------- 0---0--|------- 0---0-- ------- 0------|
  B|--------3---3-----------3---3--|--------3---3-----------3------|
  G|--------1---1-----------1---1--|--------1---1-----------1---1--|
  D|--------2---2-----------2---2--|--------2---2-----------2---2--|
  A|2---2---2---2---2---2---2---2--|2---2---2---2---2---2---2---2--|
  E|0---0-----------0---0----------|0---0-----------0---0----------|

  e|------- 0---0-- ------- 0------|------- 0---0-- ------- 0------|
  B|--------3---3-----------3---3--|--------3---3-----------3------|
  G|--------1---1-----------1---1--|--------1---1-----------1------|
  D|--------2---2-----------2---2--|--------2---2-----------2------|
  A|2---2---2---2---2---2---2---2--|2---2---2---2---2---2---2------|
  E|0---0-----------0---0----------|0---0-----------0---0----------|

  e|------- 0---0-- ------- 0---0--|------- 0---0-- ------- 0------|
  B|--------3---3-----------3---3--|--------3---3-----------3------|
  G|--------1---1-----------1---1--|--------1---1-----------1------|
  D|--------2---2-----------2---2--|--------2---2-----------2------|
  A|2---2---2---2---2---2---2---2--|2---2---2---2---2---2---2------|
  E|0---0-----------0---0----------|0---0-----------0---0----------|
    .......................... Fade out ...........................


  e|------- 0------ ------- 0---0--|------- 0---0-- ------- 0---0--|
  B|--------3---------------3---3--|--------3---3-----------3---3--|
  G|--------1---------------1---1--|--------1---1-----------1---1--|
  D|--------2---------------2---2--|--------2---2-----------2---2--|
  A|2---2---2-------2---2---2---2--|2---2---2---2---2---2---2---2--|
  E|0---0-----------0---0----------|0---0-----------0---0----------|
    ...............................................................


  e|------- 0---0-- ------- 0---0--|------- 0---0-- ------- 0---0--|
  B|--------3---3-----------3---3--|--------3---3-----------3---3--|
  G|--------1---1-----------1---1--|--------1---1-----------1---1--|
  D|--------2---2-----------2---2--|--------2---2-----------2---2--|
  A|2---2---2---2---2---2---2---2--|2---2---2---2---2---2---2---2--|
  E|0---0-----------0---0----------|0---0-----------0---0----------| ....
    ...............................................................



        B  Bend
        R  Release
        /  Slide up
          Slide down
        H  Hammer-on
        P  Pull-off
        ~  Vibrato
        +  Harmonic
        x  Mute note
        .  Play note like a dot in standard notation
        ^  Ties two notes together
        (. Pause

 
 
Beatles - Helter Skelter Tab :: indexed at Ultimate Guitar.
Helter Skelter tabs @ 911Tabs

About the artist behind Helter Skelter Tab:

The Beatles were a pop and rock group from Liverpool, England formed in 1960. Primarily consisting of John Lennon (rhythm guitar, vocals), Paul McCartney (bass guitar, vocals), George Harrison (lead guitar, vocals), and Ringo Starr (drums, vocals) throughout their career, The Beatles are recognised for leading the mid-1960s musical "British Invasion" into the United States. Although their initial musical style was rooted in 1950s rock and roll and homegrown skiffle, the group explored genres ranging from Tin Pan Alley to psychedelic rock. Their clothes, styles, and statements made them trend-setters, while their growing social awareness saw their influence extend into the social and cultural revolutions of the 1960s. After the band broke up in 1970, all four members embarked on solo careers.

The Beatles are one of the most commercially successful and critically acclaimed bands in the history of popular music. The Beatles are the best-selling musical group in history. In the United Kingdom, The Beatles released more than 40 different singles, albums, and EPs that reached number one, earning more number one albums (15) than any other group in UK chart history. This commercial success was repeated in many other countries; their record company, EMI, estimated that by 1985 they had sold over one billion records worldwide.[1] According to the Recording Industry Association of America, The Beatles have sold more albums in the United States than any other band.[2] In 2004, Rolling Stone magazine ranked The Beatles number one on its list of 100 Greatest Rock & Roll Artists of All Time. According to that same magazine, The Beatles' innovative music and cultural impact helped define the 1960s, and their influence on pop culture is still evident today.

Indexed at Wikipedia.

Show us your talent, perform Helter Skelter Tab!

Here you can post a video or audio performance. Tell me more ...
Where can we find your performance? Tell me more ...
Your comment:
Please, log in to post your performance.