Artists by letter: A B C D E F G H I J K L M N O P Q R S T U V W X Y Z 0-9

 
Paper Aeroplane Tab
Paper Aeroplane
Written by Angus & Julia Stone
Tabbed by Greg B
June 2008

This is my first tab, very simple song, pretty sure it's 100% correct.
The entire song is palm muted and is in drop d tuning half a step up;

E#
B#
G#
D#
A#
D#

BPM: 104
4/4

% = repeat

INTRO:
    1 +2 +3 +4 +  1 +2 +3 +4 +  1 +2 +3 +4 +  1 +2 +3 +4 +  
E#|-------------|-------------|-------------|-------------|
B#|-------------|-------------|-------------|-------------|
G#|-------------|-------------|-------------|-------------|
D#|----0--0--0--|-0--0--0--0--|-0--0--0--0--|-0--0--0--0--|
A#|-------------|-------------|-------------|-------------|
D#|---8----88---|--88----88---|--80----00---|--00----00---|

Main Riff:
    1 +2 +3 +4 +  1 +2 +3 +4 +  1 +2 +3 +4 +  1 +2 +3 +4 +  
E#|-------------|-------------|-------------|-------------|-|
B#|-------------|-------------|-------------|-------------| |
G#|-------------|-------------|-------------|-------------|%|
D#|-0--0--0--0--|-0--0--0--0--|-0--0--0--0--|-0--0--0--0--| |
A#|-------------|-------------|-------------|-------------|-|
D#|--08----88---|--88----88---|--80----00---|--00----00---|-|

 
 
Angus And Julia Stone - Paper Aeroplane Tab :: indexed at Ultimate Guitar.
Paper Aeroplane tabs @ 911Tabs

Quick tip, so you can enjoy Paper Aeroplane Tab even more:

If you don't really know how to deal with "Absus4" chord and his equally confusing brothers, just put the mouse cursor over them and you will be shown a helpful chord diagram.

Show us your talent, perform Paper Aeroplane Tab!

Here you can post a video or audio performance. Tell me more ...
Where can we find your performance? Tell me more ...
Your comment:
Please, log in to post your performance.