Artists by letter: A B C D E F G H I J K L M N O P Q R S T U V W X Y Z 0-9

 
Public Animal 9 Tab
Band: Alice Cooper
Song: Public Animal #9
Album: School's Out
Year: 1972
Tabbed by DoteStudios
Email is [email protected]

 I'm surprised this isn't online already, this song was famous. Well I tabbed this in 
than a day but I didn't add the solo because I can't finish it.

Keys
b = bend
r = release
 = slide up neck
/ = slide down neck
h = hammer-on
p = pull-off
~ = hold note

Lead Guitar (Glen Buxton)
E--------------13-12h13p13-----13-17-13---------------------|
B----13-14-15--------------15-----------15------------------|
G-14--------------------------------------------------------|
D-------------------------------------------15-14h15p14-12--|
A-----------------------------------------------------------|
E-----------------------------------------------------------|

E--------------13-12h13p12-----------------------------|
B----13-14-15--------------15-----13----15----13-14----|
G-14---------------------------14----14----14----------|
D---------------------------------------------------12-|
A------------------------------------------------------|
E------------------------------------------------------|

Rhythm Guitar
E-------------------------------------|
B-------------------------------------|
G-10-10--7~~--10-10--7~~--10-10--7~~--|
D-10-10--7~~--10-10--7~~--10-10--7~~--|
A--8--8--5~~---8--8--5~~---8--8--5~~--|
E-------------------------------------|

"Me and G.B.
We ain't never gonna confess
We cheated at the math test
We carved some dirty words in our desk
Well now it's time for recess"
Lead and Rhythm Guitar
E------------------------|
B------------------------|
G-7~~7--7--12~~12--10-10-| 4x
D-7~~7--7--12~~12--10-10-|
A-5~~5--5--10~~10---8--8-|
E------------------------|

"Old man waitin by the monkey bars
Tradin all his ball cards"
Lead Guitar
E-------13--------------------------13---------------|
B-13b15~~~~15~~15r13-11-------13b15~~~~15~~15r13-11--|
G-----------------------12~~-------------------------|
D----------------------------------------------------|
A----------------------------------------------------|
E----------------------------------------------------|

Rhythm Guitar
E----------------------------------------------------|
B----------------------------------------------------|
G----------------------------------------------------|
D-12~~-------------------------12~~------------------|
A-12~~-------------------------12~~------------------|
E-10~~-------------------------10~~------------------|

"And they promised him a gold star
And they told him he could go far"
E------------------------|
B------------------------|
G-7~~7--7--12~~12--10-10-| 2x
D-7~~7--7--12~~12--10-10-|
A-5~~5--5--10~~10---8--8-|
E------------------------|

"Hey Mr. Bluelegs
Where are you takin me?
I'm like a lifer
In the state penitentiary
If I keep my nose clean
I won't get my eyes shined
But I'm proud to be"
Rhythm Guitar
E-------------------------------|
B-------------------------------|
G-------------------------------| 4x
D---2-5-------------4---5--4----|
A-3---------2-3-5-5---5------5--|
E--------3----------------------|
                 (don't play the
		  above part the
		  fourth time)

"Public Animal Number Nine"
E--------------13-12h13p13-----13-17-13--------------------------------|
B----13-14-15--------------15-----------15-----------------------------|
G-14-------------------------------------------------------14----------|
D-------------------------------------------15-14-15-14-15----15--12---|
A----------------------------------------------------------------------|
E----------------------------------------------------------------------|

Rhythm Guitar
E-------------------------------------------------------------------|
B-------------------------------------------------------------------|
G-10--7~~----------------------10--7~~------------------------------|
D-10--7~~----------------------10--7~~------------------------------|
A--8--5~~-----------------------8--5~~------------------------------|
E-------------------------------------------------------------------|

"License plates are runnin'
Out of my ears
I'd give a month of cigarettes
For just a couple of lousy beers"
Lead and Rhythm Guitar
E------------------------|
B------------------------|
G-7~~7--7--12~~12--10-10-| 4x
D-7~~7--7--12~~12--10-10-|
A-5~~5--5--10~~10---8--8-|
E------------------------|

"Or even a bottle of real cheap wi-hine"
Lead Guitar
E-------13--------------------------13---------------|
B-13b15~~~~15~~15r13-11-------13b15~~~~15~~15r13-11--|
G-----------------------12~~-------------------------|
D----------------------------------------------------|
A----------------------------------------------------|
E----------------------------------------------------|

Rhythm Guitar
E----------------------------------------------------|
B----------------------------------------------------|
G----------------------------------------------------|
D-12~~-------------------------12~~------------------|
A-12~~-------------------------12~~------------------|
E-10~~-------------------------10~~------------------|

"But that's the price you pay to be
Public Animal Number Nine, Number Nine
(Ooooh!)"
Lead and Rhythm Guitar
E------------------------|
B------------------------|
G-7~~7--7--12~~12--10-10-| 2x
D-7~~7--7--12~~12--10-10-|
A-5~~5--5--10~~10---8--8-|
E------------------------|

"Hey Mrs. Cranston
Where are you takin me?
I feel like a lifer
In the state penitentiary
She wanted an Einstein
But she got a Frankenstein
Yeah, I'm proud to be"
Lead Guitar
E-------------13--------13-13--------------------------13-------13-13-|
B-------13-15-----15-13-------15--13-------------13-15----15-13-------|
G-12-14------------------------------14-12-12-14----------------------|
D---------------------------------------------------------------------|
A---------------------------------------------------------------------|
E---------------------------------------------------------------------|

E-13b15-15r13-------------------13-------13-13------------------------|
B------------15-13--------13-15----15-13-------15--13------------13-15|
G------------------12-14-----------------------------14-12-12-14------|
D---------------------------------------------------------------------|
A---------------------------------------------------------------------|
E---------------------------------------------------------------------|

Rhythm Guitar
E-------------------------------|
B-------------------------------|
G-------------------------------| 4x
D---2-5-------------4---5--4----|
A-3---------2-3-5-5---5------5--|
E--------3----------------------|
                 (don't play the
		  above part the
		  fourth time)

"Public Animal Number Niiiinnne"

During Solo...
Rhythm Guitar
E--------------------------|
B--------------------------|
G-2---2--2--2--2--2--------| 4x
D-2---2--2--2--2--2--3--5--|
A-0---0--0--0--0--0--3--5--|
E--------------------1--3--|

E----------------------|
B----------------------|
G----------------------|
D-8--6---8--6---8--6---|
A-8--6---8--6---8--6---|
E-6--4---6--4---6--4---|

Lead Guitar
E--------------13-12h13p13-----13-17-13---------------------|
B----13-14-15--------------15-----------15------------------|
G-14--------------------------------------------------------| 2x
D-------------------------------------------15-14h15p14-12--|
A-----------------------------------------------------------|
E-----------------------------------------------------------|

"(Aaow!)
Public Animal Number Nine
Public Animal Number Nine
Public Animal Number Nine Nine
Public Animal Number Nine Number Nine
Number Nine Number Nine
Number, Number Nine
Animal Number Nine
Public Animal Number Nine Nine
Public Animal Numbergh Niiiirrrrrgh
Public Animal Nurrrgh Nirrrgh
Errrrrrrrrrrrgh
Public Animal Number Ni-yine
Public Animal Number Ni-yine
Public Animal Number Number Nine Nine
Public Animal Niiiiiiine"
Lead and Rhythm Guitar
E--------------------|
B--------------------|
G-6/7~~7--7--12--10--| 15x
D-6/7~~7--7--12--10--|
A-4/5~~5--5--10---8--|
E--------------------|

 
 
Alice Cooper - Public Animal 9 Tab :: indexed at Ultimate Guitar.
Public Animal 9 tabs @ 911Tabs

About the artist behind Public Animal 9 Tab:

Alice Cooper (born Vincent Furnier; February 4, 1948) is an American rock singer, songwriter and musician whose career spans five decades. With a stage show that features guillotines, electric chairs, fake blood and boa constrictors, Cooper drew equally from horror movies, vaudeville, heavy metal and garage rock to create a theatrical brand of rock music that would come to be known as shock rock.[1] He was ranked #20 on VH1's Greatest Artists of Hard Rock program.[2]

Alice Cooper was originally a band consisting of Furnier on vocals and harmonica, lead guitarist Glen Buxton, Michael Bruce on rhythm guitar, Dennis Dunaway on bass guitar, and drummer Neal Smith. The original Alice Cooper band broke into the international music mainstream with 1971's monster hit "I'm Eighteen" from the album Love it to Death, which was followed by the even bigger single "School's Out" in 1972. The band reached their commercial peak with the 1973 album Billion Dollar Babies. Cooper's solo career began with the 1975 concept album Welcome to My Nightmare. Expanding from his Detroit garage rock[3] and glam rock[4] roots, over the years Cooper has experimented with many different musical styles, including conceptual rock, art rock, hard rock, pop rock, experimental rock and industrial rock. In recent times he has returned more to his garage rock roots.[5]

Alice Cooper is known for his social and witty persona offstage, The Rolling Stone Album Guide going so far as to refer to him as the world's most "beloved heavy metal entertainer".[6] He helped to shape the sound and look of heavy metal, and is also credited as being the man who "first introduced horror imagery to rock'n'roll, and whose stagecraft and showmanship have permanently transformed the genre".[7] Away from music, Cooper is a film actor, a golfing celebrity, a restauranteur and, since 2004, a popular radio DJ with his classic rock shows Nights with Alice Cooper.

Indexed at Wikipedia.

Show us your talent, perform Public Animal 9 Tab!

Here you can post a video or audio performance. Tell me more ...
Where can we find your performance? Tell me more ...
Your comment:
Please, log in to post your performance.