Artists by letter: A B C D E F G H I J K L M N O P Q R S T U V W X Y Z 0-9

 
No More Mr Nice Guy Tab
Band: Alice Cooper
Song: No More Mr. Nice Guy
Album: Billion Dollar Babies
Year: 1973
Tabbed by DoteStudios
Email is [email protected]

Keys
b = bend
r = release
 = slide up neck 
/ = slide down neck
h = hammer-on
p = pull-off
~ = hold note
w = whammy bar
v = vibrato

Rhythm Guitar (Michael Bruce)
E----------------------------|
B-10-10-8--8-8-------3-------|
G--9--9-9--7-7--0-/4---4p2p0-| 4x
D--7--7-7--7-7---------------|
A----------------------------|
E----------------------------|

Lead Guitar (Glen Buxton)
E---------------------------------------------------------------------|
B--------------10b12---------------------10b12---------------10b12r10-|
G-9b11--11r9-7--------9b11-9b11-9b11r9-7--------9b11--11r9-7----------|
D---------------------------------------------------------------------|
A---------------------------------------------------------------------|
E---------------------------------------------------------------------|

E------------|
B------------|
G-9b11r9-7-9-|
D------------|
A------------|
E------------|

"I used to be such a sweet, sweet thing
'Til they got a hold of me.
I opened doors for little old ladies,"
I helped the blind to see."
Lead Guitar
E-----------------------------------------------------------------|
B-----------------------------------------------------------------|
G-9b11r9-------------4--/7-9-9b11r9---9b11r9---9b11r9-----4--/7-9-|
D--------7---6---5------------------7--------6--------5-----------|
A-----------------------------------------------------------------|
E-----------------------------------------------------------------|

Rhythm Guitar
E-----------------------------------------------------------------|
B-----------------------------------------------------------------|
G--------2---6-------4---7-9---------2~~-----6~~----------4---7-9-|
D--------2---6---5---4---7-9---------2~~-----6~~------5---4---7-9-|
A--------0---4---5---2---5-7---------0~~-----4~~------5---2---5-7-|
E----------------3------------------------------------3-----------|

"I got no friends 'cause they read the papers.
They can't be seen "
Lead Guitar
E---------------------------------------------|
B---------------------------------------------|
G-------------------------------------9-11-9--|
D--------------------------------9h11---------|
A---------------------------------------------|
E---------------------------------------------|

Rhythm Guitar
E---------------------------------------------|
B---------------------------------------------|
G---------4~~4--4-4/7~~7--7-7/9---------------|
D-4~~4--4-4~~4--4-4/7~~7--7-7/9---------------|
A-4~~4--4-2~~2--2-2/5~~5--5-5/7---------------|
E-2~~2--2-------------------------------------|

" with me and I'm gettin' real shot down
And I'm feeling mean."
Lead Guitar
E--------------------------------------------------|
B------------------------------------------12b14~~-|
G-------------------------------------9-11---------|
D--------------------------------9h11--------------|
A--------------------------------------------------|
E--------------------------------------------------|

Rhythm Guitar
E--------------------------------------------------|
B--------------------------------------------------|
G---------4~~4--4-4/7~~7--7-7/9--------------------|
D-4~~4--4-4~~4--4-4/7~~7--7-7/9--------------------|
A-4~~4--4-2~~2--2-2/5~~5--5-5/7--------------------|
E-2~~2--2------------------------------------------|

"No more Mister Nice Guy,
No more Mister Clean"
Lead Guitar
E------------------------------------------------------|
B--------------------12b14~~~--------------------------|
G------------------------------------------------------|
D------------------------------------------------------|
A------------------------------------------------------|
E------------------------------------------------------|

Rhythm Guitar
E---------------------------------------------------9--|
B-10-----10-9-------------10-----10-9-----------10-----|
G----11-------11-9-----------11-------11-9--11---------|
D-------------------12---------------------------------|
A------------------------------------------------------|
E------------------------------------------------------|

"No more Mister Nice Guy,
They say he's sick, he's obscene."
Lead Guitar
E------------------------------------------------------|
B-12b14~~~----------------12b14~~~---------------------|
G------------------------------------------------------|
D------------------------------------------------------|
A------------------------------------------------------|
E------------------------------------------------------|

Rhythm Guitar
E---------------------------------------------------9--|
B-10-----10-9-------------10-----10-9-----------10-----|
G----11-------11-9-----------11-------11-9--11---------|
D-------------------12---------------------------------|
A------------------------------------------------------|
E------------------------------------------------------|

Rhythm Guitar
E----------------------------|
B-10-10-8--8-8-------3-------|
G--9--9-9--7-7--0-/4---4p2p0-| 2x
D--7--7-7--7-7---------------|
A----------------------------|
E----------------------------|

Lead Guitar
E----------------------------|
B----------14b15-14b15-14----|
G----12-14-------------------|
D-14-------------------------|
A----------------------------|
E----------------------------|

Rhythm Guitar
E----------------------------|
B-10-10-8--8-8-------3-------|
G--9--9-9--7-7--0-/4---4p2p0-| 2x
D--7--7-7--7-7---------------|
A----------------------------|
E----------------------------|

Lead Guitar
E------------------------------|
B-17b19--17b19r17--------------|
G-----------------16b18r16-----|
D--------------------------16--|
A------------------------------|
E------------------------------|

"I got no friends 'cause they read the papers.
They can't be seen "
Lead Guitar
E--------------------------------------------------|
B------------------------------------------12b14~~-|
G-------------------------------------9-11---------|
D--------------------------------9h11--------------|
A--------------------------------------------------|
E--------------------------------------------------|

Rhythm Guitar
E--------------------------------------------------|
B--------------------------------------------------|
G---------4~~4--4-4/7~~7--7-7/9--------------------|
D-4~~4--4-4~~4--4-4/7~~7--7-7/9--------------------|
A-4~~4--4-2~~2--2-2/5~~5--5-5/7--------------------|
E-2~~2--2------------------------------------------|

" with me and I'm gettin' real shot down
And I'm feeling mean."
Lead Guitar
E--------------------------------------------------|
B--------------------------------------------------|
G-------------------------------------9-11---------|
D--------------------------------9h11------10b11~~-|
A--------------------------------------------------|
E--------------------------------------------------|

Rhythm Guitar
E--------------------------------------------------|
B--------------------------------------------------|
G---------4~~4--4-4/7~~7--7-7/9--------------------|
D-4~~4--4-4~~4--4-4/7~~7--7-7/9--------------------|
A-4~~4--4-2~~2--2-2/5~~5--5-5/7--------------------|
E-2~~2--2------------------------------------------|

"No more Mister Nice Guy,
No more Mister Clean"
Lead Guitar
E------------------------------------------------------|
B--------------------12b14~~~--------------------------|
G------------------------------------------------------|
D------------------------------------------------------|
A------------------------------------------------------|
E------------------------------------------------------|

Rhythm Guitar
E---------------------------------------------------9--|
B-10-----10-9-------------10-----10-9-----------10-----|
G----11-------11-9-----------11-------11-9--11---------|
D-------------------12---------------------------------|
A------------------------------------------------------|
E------------------------------------------------------|

"No more Mister Nice Guy,
They say he's sick, he's obscene."
Lead Guitar
E------------------------------------------------------|
B-12b14~~~----------------12b14~~~---------------------|
G------------------------------------------------------|
D------------------------------------------------------|
A------------------------------------------------------|
E------------------------------------------------------|

Rhythm Guitar
E---------------------------------------------------9--|
B-10-----10-9-------------10-----10-9-----------10-----|
G----11-------11-9-----------11-------11-9--11---------|
D-------------------12---------------------------------|
A------------------------------------------------------|
E------------------------------------------------------|

"My dog bit me on the leg today.
My cat clawed my eyes.
Ma's been thrown out of the social circle,
And dad has to hide."
Lead Guitar
E---------9---------9--------7-------|
B------10---------9--------8----7--9-|
G----9----------9--------7------7--9-|
D-11---------11--------9--------9--9-|
A------------------------------------|
E------------------------------------|

Rhythm Guitar
E------------------------------------|
B------------------------------------|
G-------------6~~------5~~------4----|
D-7~~---------6~~------5~~------4--2-|
A-7~~---------4~~------3~~------2--2-|
E-5~~------------------------------0-|
Repeat the 2 riffs above 2x

"I went to church incognito.
When everybody rose, the Reverend Smith,
He recognized me,
And punched me in the nose."
Lead Guitar
E-------------------------------------|
B-------------------------------------|
G-9b11r9---9b11r9---9b11r9----4--/7-9-|
D--------7--------6--------5----------|
A-------------------------------------|
E-------------------------------------|

Rhythm Guitar
E--------------------------------------|
B--------------------------------------|
G--------2--------6------------4---7-9-|
D--------2--------6--------5---4---7-9-|
A--------0--------4--------5---2---5-7-|
E--------------------------3-----------|
Repeat the 2 riffs above 2x

"No more Mister Nice Guy,
No more Mister Clean,
No more Mister Nice Guy,
They say you're sick, you're obscene
No more Mister Nice Guy,
No more Mister Clean,
No more Mister Nice Guy,
They say you're sick, you're obscene"
Lead Guitar
E------------------------------------------------------|
B-12b14~~~----------------12b14~~~---------------------|
G------------------------------------------------------|
D------------------------------------------------------|
A------------------------------------------------------|
E------------------------------------------------------|

Rhythm Guitar
E---------------------------------------------------9--|
B-10-----10-9-------------10-----10-9-----------10-----|
G----11-------11-9-----------11-------11-9--11---------|
D-------------------12---------------------------------|
A------------------------------------------------------|
E------------------------------------------------------|
Repeat the 2 riffs above 4x

After the 4th time 
Rhythm Guitar
E-----------9------------9--12~~--|
B-------10-----------10-----------|
G-9-11---------9-11---------------|
D---------------------------------|
A---------------------------------|
E---------------------------------|

 
 
Alice Cooper - No More Mr Nice Guy Tab :: indexed at Ultimate Guitar.
No More Mr Nice Guy tabs @ 911Tabs

About the artist behind No More Mr Nice Guy Tab:

Alice Cooper (born Vincent Furnier; February 4, 1948) is an American rock singer, songwriter and musician whose career spans five decades. With a stage show that features guillotines, electric chairs, fake blood and boa constrictors, Cooper drew equally from horror movies, vaudeville, heavy metal and garage rock to create a theatrical brand of rock music that would come to be known as shock rock.[1] He was ranked #20 on VH1's Greatest Artists of Hard Rock program.[2]

Alice Cooper was originally a band consisting of Furnier on vocals and harmonica, lead guitarist Glen Buxton, Michael Bruce on rhythm guitar, Dennis Dunaway on bass guitar, and drummer Neal Smith. The original Alice Cooper band broke into the international music mainstream with 1971's monster hit "I'm Eighteen" from the album Love it to Death, which was followed by the even bigger single "School's Out" in 1972. The band reached their commercial peak with the 1973 album Billion Dollar Babies. Cooper's solo career began with the 1975 concept album Welcome to My Nightmare. Expanding from his Detroit garage rock[3] and glam rock[4] roots, over the years Cooper has experimented with many different musical styles, including conceptual rock, art rock, hard rock, pop rock, experimental rock and industrial rock. In recent times he has returned more to his garage rock roots.[5]

Alice Cooper is known for his social and witty persona offstage, The Rolling Stone Album Guide going so far as to refer to him as the world's most "beloved heavy metal entertainer".[6] He helped to shape the sound and look of heavy metal, and is also credited as being the man who "first introduced horror imagery to rock'n'roll, and whose stagecraft and showmanship have permanently transformed the genre".[7] Away from music, Cooper is a film actor, a golfing celebrity, a restauranteur and, since 2004, a popular radio DJ with his classic rock shows Nights with Alice Cooper.

Indexed at Wikipedia.

Show us your talent, perform No More Mr Nice Guy Tab!

Here you can post a video or audio performance. Tell me more ...
Where can we find your performance? Tell me more ...
Your comment:
Please, log in to post your performance.