Artists by letter: A B C D E F G H I J K L M N O P Q R S T U V W X Y Z 0-9

 
Too Old To Cry Tab

[intro]
"Tell me what, you'd think if i would say goodbye..."
e ----------------------------------|
b ----------------------------------|
g ----------------------------------|
d -000-5-555-999-5-00-5-00-5--------|
a -000-5-555-999-5-00-5-00-5--------|
d -000-5-555-999-5-00-5-00-5--------|
   *** * *** *** * ** * ** *

[chorus]
[played with no vocals for the beginning]
e ------------------------------------------------|
b ------------------------------------------------|
g ------------------------------------------------|
d -000-5-555-999-5-XX-5--XX----000--555--9X7X5----|
a -000-5-555-999-5-XX-5--XX----000--555--9X7X5----|
d -000-5-555-999-5-XX-5--XX----000--555--9X7X5----|


[verse]

e --------------------------------------------------------------------------|
b --------------------------------------------------------------------------|
g --------------------------------------------------------------------------|
d -00-5-00-5-00-5-00-5-00-9-00-9-00-9-00-9-00-7-00-7-00-7-00-7--00-00-00-00-|
a -00-5-00-5-00-5-00-5-00-9-00-9-00-9-00-9-00-7-00-7-00-7-00-7--00-00-00-00-|
d -00-5-00-5-00-5-00-5-00-9-00-9-00-9-00-9-00-7-00-7-00-7-00-7--00-00-00-00-|
   **   **   **   **    **   **   **   **   **   **   **   **   ** ** ** **

[chorus]

[verse]

bridge, outro

e ----------------------------------------------------------------|
b ----------------------------------------------------------------|
g --777--------111111--------999----------------------------------|
d --XXX-4times-X-X-X-4times--XXX-4times---------------------------|
a --555--------9-9-9---------777----------------------------------|
d ----------------------------------------------------------------|


[intro]

[solo] its almost right or close!


e --------------------------------------------------------------------------|
b --------------------------------------------------------------------------|
g 6-7-6-6~7/11-11-11-9h11p-7-6-0h6h7-0h7h9-0h9h11-0h11h12-7-9-6~6-7-9~767-ph|
d -----7~-------------------------------------------------------------------|
a --------------------------------------------------------------------------|
d --------------------------------------------------------------------------|


another good band that needs more exposure ps this is the same person that posted the 
for Abandon Ship Or Abandon All Hope (intro) Tab by Four Year Strong.

* palm mute
h hammer on
p pull off
ph pinch harmonic
X mute note

 
 
Voodoo Blue - Too Old To Cry Tab :: indexed at Ultimate Guitar.
Too Old To Cry tabs @ 911Tabs
People who played Voodoo Blue - Too Old To Cry Tab also played these songs by Voodoo Blue:
Too Old To Cry Chords, Too Old To Cry

Quick tip, so you can enjoy Too Old To Cry Tab even more:

If you don't really know how to deal with "Absus4" chord and his equally confusing brothers, just put the mouse cursor over them and you will be shown a helpful chord diagram.

Show us your talent, perform Too Old To Cry Tab!

Here you can post a video or audio performance. Tell me more ...
Where can we find your performance? Tell me more ...
Your comment:
Please, log in to post your performance.