Artists by letter: A B C D E F G H I J K L M N O P Q R S T U V W X Y Z 0-9

 
Your The One Tab
recorded by The Vogues- You're the one.
Co & Ce #229    9/65
Help By my friend MArk Dalgarno.
(intro lick):
      n.c.                           Bb
    E|-----------|------------------|1----------|------------------|
    B|----------3|-3h4-3------------|3---------3|-3h4-3------------|
    G|---3--3----|3----------3-3h5p3|3--3--3----|3----------3-3h5p3|
    D|3----------|------3-3h5-------|3----------|------3-3h5-------|
    A|-----------|------------------|1----------|------------------|
    E|-----------|------------------|-----------|------------------|

(verse 1):
           Eb            Bb    Cm            Gm
          Every time we meet, everything is sweet
           F                    Bb
          Ooh you're so tender, I must surrender
           Eb                   F
          My love is your love now and forever

(chorus):
           Bb                    Eb
          You're the one that I long to kiss
                 F                Bb
          Baby, you're the one I really miss
                                   Eb
          You're the one that I'm dreaming of
                F                     Bb
          Baby you're the one that I love

(verse 2):
          Keep me in your heart, never let us part
          Ooh never leave me, please don't deceive me
          I want you only, you must believe me

(chorus)

(bridge):
          F  Eb           F         Eb
          I adore you and no one before you
                 F       Eb       Gm
          could make me feel this way
           Eb
          Since I met you I just can't forget you
                                F
          I love you more each day

          Yeah yeah yeah yeah

(break):
             Bb         Eb             F          Bb
          E|-----------|-------------|-----------|-----------|
          B|-----3---3-|-3---------3-|-4-3-------|-----3-----|
          G|-3-5---5---|---5-3-5-5---|-----5-3-5-|-3-5-------|
          D|-----------|-------------|-----------|-----------|
          A|-----------|-------------|-----------|-----------|
          E|-----------|-------------|-----------|-----------|

             Bb         Eb             F          Bb
          E|-----------|-------------|-----------|-----------|
          B|-----3---3-|-3---------3-|-4-3-------|-----------|
          G|-3-5---5---|---5-3-5-5---|-----5-3-5-|-3---------|
          D|-----------|-------------|-----------|-----------|
          A|-----------|-------------|-----------|-----------|
          E|-----------|-------------|-----------|-----------|

(verse 3):
           E                 B      C#m                Abm
          There may be some tears, through the coming years
           F#                  B
          Ooh all the while I know you'll be smiling
           E                       F#
          Your love will guide me through every mile 'cause

(chorus):
           B                     E
          You're the one that I long to kiss
                 F#               B
          Baby, you're the one I really miss
                                   E
          You're the one that I'm dreaming of
               F#                    B
          Baby you're the one that I love   yeah yeah

(repeat chorus & fade)

Thanks and please rate

 
 
Vogues - Your The One Tab :: indexed at Ultimate Guitar.
Your The One tabs @ 911Tabs

Quick tip, so you can enjoy Your The One Tab even more:

Try out the AutoScroller option ... It scrolls the page for you, so you can totally focus on nailing that solo. You can choose among different speeds using your mouse or your keyboard (keys 0, 1, 2 and 3).

Show us your talent, perform Your The One Tab!

Here you can post a video or audio performance. Tell me more ...
Where can we find your performance? Tell me more ...
Your comment:
Please, log in to post your performance.