Artists by letter: A B C D E F G H I J K L M N O P Q R S T U V W X Y Z 0-9

 
Cant Find My Way Home Tab
                             CAN'T FIND MY WAY HOME
                              As recorded by Swans
                     (From the 1989 Album GOD DAMN THE SUN)

Transcribed by Corey Hunter @ www.coreyhunter.com


 Intro/Verse riff
 4/4
  Gtr I
  S S S S S S S S  S S S S S S S S   S S S S +S  S S S  S S S S +S  S S S
|------------------------3---0-----|-------2-(2)---------------------------|
|-------3-------3--------------3---|-------------3------------3-(3)--------|
|---2-------2--------0-----------0-|---0-------------0----2---------2---0--|
|-----0---0---0--------0---0-------|-----0---------0--------0---------0----|
|-3----------------2---------------|-1------------------0------------------|
|----------------------------------|---------------------------------------|


  S S S S S S S S  S S S S S S S S   S S S S S S S S  S S S S S S S S
|------------------------3---------|-------2-------3----2---0h2-------|
|-------3--------------------0-3-0-|---3-------3----------------3---3-|
|---0-------0---0----0-------------|-----2-------2--------2-------2---|
|-------------0--------0---0-------|-0-------0--------0---------------|
|-----3---3------------------------|----------------------------------|
|-1----------------3---------------|----------------------------------|

* This bar replaces the last bar of Intro riff on the 2nd time thru.
  It comes up again in the Verses, which feature slight
  variations here and there.

  S S S S +S  S S S +S  S S S +S  S E
|-------2-(2)-----2-(2)-----2-(2)-----|
|---3---------3---------3---------3---|
|-----2---------2---------2-----------|
|-0---------------------------------0-|
|-------------------------------------|
|-------------------------------------|



Chorus(Chords)*Try employing sus2 and 4 variations in the bars containing D
                Listen to the recording to hear how they work.
                   


   G              Em             D              Em
|  /  /  /  /  |  /  /  /  /  |  /  /  /  /  |  /  /  /  /  |


   G     F  Em    D     
|  /  /  /  /  |  /  /  /  /  | Song then trails back to the Verse riff






Duration Legend
---------------
W - whole; H - half; Q - quarter; E - 8th; S - 16th; T - 32nd; X - 64th; a - acciaccatura
+ - note tied to previous; . - note dotted; .. - note double dotted
Uncapitalized letters represent notes that are staccato (1/2 duration)
Irregular groupings are notated above the duration line
Duration letters will always appear directly above the note/fret number it represents the
duration for.  Duration letters with no fret number below them represent rests.  Multi-
bar rests are notated in the form Wxn, where n is the number of bars to rest for.  Low
melody durations appear below the staff

Tablature Legend
----------------
 h   - hammer-on
 
Misc Legend
-----------
 |  - bar
||  - double bar
||o - repeat start
o|| - repeat end
*|  - double bar (ending)
 :  - bar (freetime)
 $  - Segno
 &  - Coda
Tempo markers -  = BPM(8/16=s8/s16), where s8 = swing 8ths, s16 = swing 16ths




 
 
Swans - Cant Find My Way Home Tab :: indexed at Ultimate Guitar.
Cant Find My Way Home tabs @ 911Tabs
People who played Swans - Cant Find My Way Home Tab also played these songs by Swans:
God Damn The Sun Chords, Blind Tab, Hypogirl Chords, Failure Tab, Reeling The Liars In Chords, Blackmail Tab

Quick tip, so you can enjoy Cant Find My Way Home Tab even more:

After the registration (which takes just 10 seconds, remember?) you will be able to use your profile - your very own piece of YourChords.com.

Show us your talent, perform Cant Find My Way Home Tab!

Here you can post a video or audio performance. Tell me more ...
Where can we find your performance? Tell me more ...
Your comment:
Please, log in to post your performance.