Artists by letter: A B C D E F G H I J K L M N O P Q R S T U V W X Y Z 0-9

 
Memento Bass Tab
-------------------------------------------------------------------------------
			    Memento - Juniper Lane
-------------------------------------------------------------------------------

Tabbed By : Nick Lucente
e-mail: [email protected]

Tuning: I play in DGCF but I think they actually use standard.

Intro/Chorus

G|-------------------------------------------------------------------|
D|-------------------------------------------------------------------|
A|--0000000000000000------------------555555555555555-777777777777---|
E|-------------------2222222222222222--------------------------------|

G|-------------------------------------------------------------|
D|-------------------------------------------------------------|
A|--0000000000000000------------------555555555555555-77777777-|
E|-------------------2222222222222222--------------------------|

Verse

G|---------------------------------------------------------|
D|---------------------------------------------------------|
A|--00----00-0------------------77----77-7-----55----55-5--|
E|----------------22----22-2-------------------------------|


Bridge

G|---------------------------------------------------|
D|--44-44-44-44-------------22-22-22-22--------------|
A|--------------44-44-44-44-------------55-55-55-55--|
E|---------------------------------------------------|

http://juniperlane.com/


 
 
Juniper Lane - Memento Bass Tab :: indexed at Ultimate Guitar.
Memento Bass tabs @ 911Tabs

Quick tip, so you can enjoy Memento Bass Tab even more:

Try out the AutoScroller option ... It scrolls the page for you, so you can totally focus on nailing that solo. You can choose among different speeds using your mouse or your keyboard (keys 0, 1, 2 and 3).

Show us your talent, perform Memento Bass Tab!

Here you can post a video or audio performance. Tell me more ...
Where can we find your performance? Tell me more ...
Your comment:
Please, log in to post your performance.