Artists by letter: A B C D E F G H I J K L M N O P Q R S T U V W X Y Z 0-9

 
Year 3000 Tab
Year 3000-Jonas Brothers
This is both what Nick and Kevin play
I used this video to help with strumming:
http://www.youtube.com/watch?v=qW6Hfzpi0zg&feature=related

INTRO:
 Kevin: x2                Nick: x2
|-----------------------||-----------------------|
|-----------------------||-----------------------|
|--4-4------------------||--9-9------------------|
|--4-4--4-4--2-2--2--4--||--9-9--9-9--7-7--7--9--|
|--2-2--4-4--2-2--2--4--||--7-7--9-9--7-7--7--9--|
|-------2-2----------2--||-------7-7--5-5--5--7--|

VERSE:
 Kevin: x3                Nick: x3
|-----------------------||-----------------------|
|-----------------------||-----------------------|
|--4-4-------1-1--1-----||--9-9------------------|
|--4-4--4-4--2-2--2--4--||--9-9--9-9--7-7--7--9--|
|--2-2--4-4--2-2--2--4--||--7-7--9-9--7-7--7--9--|
|-------2-2----------2--||-------7-7--5-5--5--7--|

HOOK:  
 Kevin:                                       Nick: 
|-------------------------------------------||----------|
|-------------------------------------------||----------|
|------------------------------------1------||--------2-|
|--6-6-6-6-6-6-6-6--4-4-4-4-4-4-4-4--2-x16--||--6--4--2-|
|--6-6-6-6-6-6-6-6--4-4-4-4-4-4-4-4--2------||--6--4----|
|--4-4-4-4-4-4-4-4--2-2-2-2-2-2-2-2---------||--4--2----|

CHORUS:
Kevin: x4                       Nick: x4
|-----------------------------||-----------------------------|
|-----------------------------||-----------------------------|
|--9-9------------------------||--9-9------------------------|
|--9-9--9-9--7-7--7--9-9-9-9--||--9-9--9-9--7-7--7--9-9-9-9--|
|--7-7--9-9--7-7--7--9-9-9-9--||--7-7--9-9--7-7--7--9-9-9-9--|
|-------7-7--5-5--5--7-7-7-7--||-------7-7--5-5--5--7-7-7-7--|

Verse 2:
 Kevin:                   Nick:
|-----------------------||-----------------------|
|-----------------------||-----------------------|
|--4-4-------1-1--1-----||--9-9------------------|
|--4-4--4-4--2-2--2--4--||--9-9--9-9--7-7--7--9--|
|--2-2--4-4--2-2--2--4--||--7-7--9-9--7-7--7--9--|
|-------2-2----------2--||-------7-7--5-5--5--7--|

 Kevin:             Nick: 
|----------------||----------------|
|----------------||----------------|
|--4-4-------1---||--9-9-----------|
|--4-4--4-4--2---||--9-9--9-9--7---|
|--2-2--4-4--2---||--7-7--9-9--7---|
|-------2-2------||-------7-7--5---|

Kevin:                    Nick: 
|-----------------------||-----------------------|
|-----------------------||-----------------------|
|--4-4-------1-1--1-----||--9-9------------------|
|--4-4--4-4--2-2--2--4--||--9-9--9-9--7-7--7--9--|
|--2-2--4-4--2-2--2--4--||--7-7--9-9--7-7--7--9--|
|-------2-2----------2--||-------7-7--5-5--5--7--|

HOOK:
 Kevin:                                       Nick: 
|-------------------------------------------||---------------------|
|-------------------------------------------||---------------------|
|------------------------------------1------||---------------------|
|--6-6-6-6-6-6-6-6--4-4-4-4-4-4-4-4--2-x16--||--6-----4-----2-x16--|
|--6-6-6-6-6-6-6-6--4-4-4-4-4-4-4-4--2------||--6-x8--4-x8--2------|
|--4-4-4-4-4-4-4-4--2-2-2-2-2-2-2-2---------||--4-----2------------|

CHORUS:
 Kevin: x4                      Nick: x4
|-----------------------------||-----------------------------|
|-----------------------------||-----------------------------|
|--9-9------------------------||--9-9------------------------|
|--9-9--9-9--7-7--7--9-9-9-9--||--9-9--9-9--7-7--7--9-9-9-9--|
|--7-7--9-9--7-7--7--9-9-9-9--||--7-7--9-9--7-7--7--9-9-9-9--|
|-------7-7--5-5--5--7-7-7-7--||-------7-7--5-5--5--7-7-7-7--|

BRIDGE:
 Kevin:                   Nick:
|-----------------------||-----------------------|
|-----------------------||-----------------------|
|--4-4-------1-1--1-----||--9-9------------------|
|--4-4--4-4--2-2--1--4--||--9-9--9-9--7-7--7--9--|
|--2-2--4-4--2-2--2--4--||--7-7--9-9--7-7--7--9--|
|-------2-2----------2--||-------7-7--5-5--5--7--|

 Kevin:             Nick:
|---------------||---------------|
|---------------||---------------|
|--4-4-------1--||--9-9----------|
|--4-4--4-4--2--||--9-9--9-9--7--|
|--2-2--4-4--2--||--7-7--9-9--7--|
|-------2-2-----||-------7-7--5--|

 Kevin:                   Nick:
|-----------------------||-----------------------|
|-----------------------||-----------------------|
|--4-4-------1-1--1-----||--9-9------------------|
|--4-4--4-4--2-2--1--4--||--9-9--9-9--7-7--7--9--|
|--2-2--4-4--2-2--2--4--||--7-7--9-9--7-7--7--9--|
|-------2-2----------2--||-------7-7--5-5--5--7--|

 Kevin:                         Nick:
|-----------------------------||-----------------------------|
|-----------------------------||-----------------------------|
|--4-4-------1-1-1-1-1-1-1-1--||--9-9------------------------|
|--4-4--4-4--2-2-2-1-1-1-1-1--||--9-9--9-9--7-7-7-7-7-7-7-7--|
|--2-2--4-4--2-2-2-2-2-2-2-2--||--7-7--9-9--7-7-7-7-7-7-7-7--|
|-------2-2-------------------||-------7-7--5-5-5-5-5-5-5-5--|

HOOK:  
 Kevin:                                       Nick: 
|-------------------------------------------||----------|
|-------------------------------------------||----------|
|------------------------------------1------||--------2-|
|--6-6-6-6-6-6-6-6--4-4-4-4-4-4-4-4--2-x16--||--6--4--2-|
|--6-6-6-6-6-6-6-6--4-4-4-4-4-4-4-4--2------||--6--4----|
|--4-4-4-4-4-4-4-4--2-2-2-2-2-2-2-2---------||--4--2----|

CHORUS:
 Kevin: x3                Nick: x3 
|-----------------------||-----------------------|
|-----------------------||-----------------------|
|--4-4-------1-1--1-----||--9-9------------------|
|--4-4--4-4--2-2--1--4--||--9-9--9-9--7-7--7--9--|
|--2-2--4-4--2-2--2--4--||--7-7--9-9--7-7--7--9--|
|-------2-2----------2--||-------7-7--5-5--5--7--|

 Kevin:               Nick:
|-------------------||-------------------||
|-------------------||-------------------||
|--4-4--------------||--9-9--------------||
|--4-4--4-4--2-x16--||--9-9--9-9--7------||
|--2-2--4-4--2------||--7-7--9-9--7-x16--||
|-------2-2---------||-------7-7--5------||

CHORUS:
 Kevin: x4                      Nick: x4
|-----------------------------||-----------------------------|
|-----------------------------||-----------------------------|
|--9-9------------------------||--9-9------------------------|
|--9-9--9-9--7-7--7--9-9-9-9--||--9-9--9-9--7-7--7--9-9-9-9--|
|--7-7--9-9--7-7--7--9-9-9-9--||--7-7--9-9--7-7--7--9-9-9-9--|

OUTRO:
 Kevin: x4                      Nick: x4
|-----------------------------||-----------------------------|
|-----------------------------||-----------------------------|
|--9-9------------------------||--9-9------------------------|
|--9-9--9-9--7-7--7--9-9-9-9--||--9-9--9-9--7-7--7--9-9-9-9--|
|--7-7--9-9--7-7--7--9-9-9-9--||--7-7--9-9--7-7--7--9-9-9-9--|
|-------7-7--5-5--5--7-7-7-7--||-------7-7--5-5--5--7-7-7-7--|





















 
 
Jonas Brothers - Year 3000 Tab :: indexed at Ultimate Guitar.
Year 3000 tabs @ 911Tabs

About the artist behind Year 3000 Tab:

The Jonas Brothers are an American pop-rock band from Wyckoff, New Jersey made up of three brothers: Kevin, Joe, and Nick Jonas. They have released two albums - It's About Time in 2006, and Jonas Brothers in 2007, and will release A Little Bit Longer in 2008.

Indexed at Wikipedia.

Show us your talent, perform Year 3000 Tab!

Here you can post a video or audio performance. Tell me more ...
Where can we find your performance? Tell me more ...
Your comment:
Please, log in to post your performance.