Artists by letter: A B C D E F G H I J K L M N O P Q R S T U V W X Y Z 0-9

 
I Bow Down Bass Bass Tab
6/8

Verse:

g|-----|-----|-----|-----|-----|-----|-----|-----|
d|-----|-----|-----|-----|--2--|--0--|-----|--0--|
a|--0--|--2--|-----|--5--|-----|-----|-0-2-|-----|
e|-----|-----|--2--|-----|-----|-----|-----|-----|

g|-----|-----|-----|-----|-----|-----|-----|-----||
d|-----|-----|-----|-----|--2--|--0--|-----|-0-2-||
a|--0--|--2--|-----|--5--|-----|-----|-0-2-|-----||
e|-----|-----|--2--|-----|-----|-----|-----|-----||


Chorus:

g|-----|-----|-----|-----|-----|-----|-----|-----|
d|-----|--0--|-4-2-|--0--|--2--|--0--|-----|-0-2-|
a|--0--|-----|-----|-----|-----|-----|-0-2-|-----|
e|-----|-----|-----|-----|-----|-----|-----|-----|

g|-----|-----|-----|-----|-----|-----|-----|-----||
d|-----|--0--|-4-2-|--0--|--2--|--0--|-----|--0--||
a|--0--|-----|-----|-----|-----|-----|-0-2-|-----||
e|-----|-----|-----|-----|-----|-----|-----|-----||

Bridge:

g|-----|------||-----|-----||
d|-----|-----||-----|-----||
a|-----|-0-5-||--7--|--(7)-||
e|-2-0-|------||-----|--0--||
            {x5}



 
 
Joel Engle - I Bow Down Bass Bass Tab :: indexed at Ultimate Guitar.
I Bow Down Bass Bass tabs @ 911Tabs
People who played Joel Engle - I Bow Down Bass Bass Tab also played these songs by Joel Engle:
Sing To The King Chords, Nothing Left Of Me Chords, Nothing Left Of Me, Sing To The King

Quick tip, so you can enjoy I Bow Down Bass Bass Tab even more:

Try out the AutoScroller option ... It scrolls the page for you, so you can totally focus on nailing that solo. You can choose among different speeds using your mouse or your keyboard (keys 0, 1, 2 and 3).

Show us your talent, perform I Bow Down Bass Bass Tab!

Here you can post a video or audio performance. Tell me more ...
Where can we find your performance? Tell me more ...
Your comment:
Please, log in to post your performance.