Artists by letter: A B C D E F G H I J K L M N O P Q R S T U V W X Y Z 0-9

 
Unrock Tab
e|-------------------------------|--------------------------------|
B|-------------------------------|-------------------------13-----|
G|-----12-10--12-----12--10--12-|----12--10--12----12-12------12-|
D|-10-------------10-------------|-9--------------9---------------|
A|-------------------------------|--------------------------------|
E|-------------------------------|--------------------------------|

e|-------------------------------|--------------------------------|
B|-------------------------------|--------------------------------|
G|-----12-10--12-----12--10--12-|--------------------------------|
D|-10-------------10-------------|-9------------------------------|
A|-------------------------------|--------------------------------|
E|-------------------------------|--------------------------------|

e|----------------------|---------------------|
B|----------------------|---------------------|
G|----------------------|---------------------|2x
D|-----1----------------|----1----------------|
A|-3-------2------------|-3-----3-------------|
E|----------------------|---------------------|


Aboard the plane              I watch the mermaids curl their tongues
e|---------------15-15-13-15-|------10---------------15-15-20-15-|
B|-13------------------------|-11--------13----------------------|
G|---------------------------|-----------------------------------|
D|---------------------------|-----------------------------------|
A|---------------------------|-----------------------------------|
E|---------------------------|-----------------------------------|
Feel sick and thin           Got babies scheming here within
Got no memories              and no rescue from the seas
Feel ill at ease yo          Its all about to come
e|-----13--------15-15-13-15-|------13---11----------15-15-20-15-|
B|-13------16----------------|-11--------------------------------|
G|---------------------------|-----------------------------------|
D|---------------------------|-----------------------------------|
A|---------------------------|-----------------------------------|
E|---------------------------|-----------------------------------|

Chorus:
I feel like flying up against the sun And I don t think that I am the only one
e|-----8---13-11p10-------|-----------------------|
B|----8-------------11----|------8---------8------|
G|---8--------------------|----10-------8-----8---|
D|-10---------------------|---9------10-----------|
A|------------------------|-10--------------------|
E|------------------------|-----------------------|
So put your souls on everyone And give me some,give me some
e|-----8---13-11p10-------|-----------------------|
B|----8-------------11----|-----6-8---------------|
G|---8--------------------|---7-------8-----8-----|
D|-10---------------------|--8-------10----10-----|
A|------------------------|-8---------------------|
E|------------------------|-----------------------|
I feel like flying up against the sun And I don t think that I am the only one
e|-----8---13-11p10-------|-----------------------|
B|----8-------------11----|------8---------8------|
G|---8--------------------|----10-------8-----8---|
D|-10---------------------|---9------10-----------|
A|------------------------|-10--------------------|
E|------------------------|-----------------------|
So put your souls on everyone And give me some,give me some
e|-----8---13-11p10-------|-----------------------|
B|----8-------------11----|-----6-8---------------|
G|---8--------------------|---7-------8--------8--|
D|-10---------------------|--8-------10-----------|
A|------------------------|-8---------------------|
E|------------------------|-----------------------|

e|-----------------|------------------|
B|-----------------|------------------|
G|-8-8--8-8-7------|-7-7--7-7-8-------|
D|-----------------|------------------|2x
A|-----------------|------------------|
E|-8-8--8-8-6------|-6-6--6-6-8-------|

I am growing tame and the cannibals keep having fun
They won t give me back, no won't give me back my head

So here we are                 out drying in the sun
e|----------------15-15-13-15-|-----------------------|
B|----------------------------|-----------------------|
G|-----8----------------------|---7--------------8----|
D|---10---10------------------|--8--10---------10-10--|
A|-10-------8-----------------|-8------------10-------|
E|----------------------------|-----------------------|
I could plan a run      or just stay and be done
e|---------------------|--------------------------|
B|---------------------|--------------------------|
G|-----8---------------|----7----------------8----|
D|-10-----8------------|---8--8--------10-10---10-|
A|---------------------|--8-----------------------|
E|---------------------|-6------------------------|

Chorus

e|-----------------|------------------|
B|-----------------|------------------|
G|-8-8--8-8-7------|-7-7--7-7-8-------|
D|-----------------|------------------|3x
A|-----------------|------------------|
E|-8-8--8-8-6------|-6-6--6-6-8-------|

e|-----------------|---------------------------------|
B|-----------------|---------------------------------|
G|-8-8--8-8-7------|-7-7--7-7-8---12--13-12-10-------|
D|-----------------|---------------------------13-12-|
A|-----------------|---------------------------------|
E|-8-8--8-8-6------|-6-6--6-6-8----------------------|

e|-----------------|-----------------|
B|-----------------|-----8----8------|
G|-5----8---7------|---7---7--8------|
D|-5---10---8------|-9-------10------|
A|-----------------|-----------------|
E|-----------------|-----------------|

e|------------------|-----------------|
B|------------------|-----6-8--8------|
G|-------8-8--7-----|---7------8------|
D|-10-10------8-----|-9-------10------|
A|------------------|-----------------|
E|------------------|-----------------|

e|----------------------------|
B|----------------------------|
G|----------------------------|
D|-10----8---8---9-9-10-10---|
A|----10---8----8------10---10|
E|----------------------------|

e|----------------------------|
B|----------------------------|
G|----------------------------|
D|-10----8---8---9-9-10-------|
A|----10---8----8-------------|
E|----------------------------|

Chorus


 
 
Gabriel Rios - Unrock Tab :: indexed at Ultimate Guitar.
Unrock tabs @ 911Tabs
People who played Gabriel Rios - Unrock Tab also played these songs by Gabriel Rios:
Gold Chords, Broad Daylight Tab, Broad Daylight Chords, Broad Daylight Chords, Swing Low Chords, Broad Daylight Chords

Quick tip, so you can enjoy Unrock Tab even more:

Try out the AutoScroller option ... It scrolls the page for you, so you can totally focus on nailing that solo. You can choose among different speeds using your mouse or your keyboard (keys 0, 1, 2 and 3).

Show us your talent, perform Unrock Tab!

Here you can post a video or audio performance. Tell me more ...
Where can we find your performance? Tell me more ...
Your comment:
Please, log in to post your performance.