Artists by letter: A B C D E F G H I J K L M N O P Q R S T U V W X Y Z 0-9

 
Heart Things Never Shared Tab
-----------------------------------------------------------------------------
Heart(Things Never Shared)- Doug Martsch
-----------------------------------------------------------------------------
Tabbed by: Jeff McCall
Email: [email protected]

Tuning: Standard

Em            D          Em           C
Don't you get sick of it Stuck in the thick of it

Em         D                 C
Making new friends you don't need

Em       D           Em         C
Isn't it amazing how everyone's crazy about

Em       D          C 
violence they can't conceive

D           Em          C          G
Well I hung around like another pronoun

D            Em        C
Familiar but lacking a name

D           Am         Em
It was good enough for me

G     D            Am 
      Things never shared
D                 Am           Em
Things that don't mean much to me

G     D            Am
      Things never shared
D                 Am           Em
things that don't mean much to me

G       D     Am
    I'm on my guard
Am             Em  C
wait until you see sometime,

G       D     Am
  whats in my heart
D     Am        Em
good enough for me

Solo 1

Em - D - Em - C
Em - D - C

Em - D - Em - C
Em - D - C

D - Em - C - G
D - Em - C
D - Am - Em

Solo 1 (1:31) played with a slide
e|--------------------------------------------------------------------------|
B|--------------------------------------------------------------------------|
G|-----9----/11~-----9-----/12v--/12-/11-/9-/11-/9-/7-/9--------------------|
D|-7/9--7/9-----7/9---7/9----------------------------------10--------------|
A|--------------------------------------------------------------------------|
E|--------------------------------------------------------------------------|

e|--------------------------------------------------------------------------|
B|--------------------------------------------------------------------------|
G|-----9-----11~--12-11---------9/12-/9-7/11-/7-/5-------------------------|
D|-7/9---7/9------------9-9/10----------------------------------------------|
A|--------------------------------------------------------------------------|
E|--------------------------------------------------------------------------|

e|--------------------------------------------------------------------------|
B|-----7---/8-/7-/5-/7-/5-/7-/12------7---/8-/7-/5-/75/75/75-------------|
G|-5/7---7------------------------5/7---7-----------------------------------|
D|--------------------------------------------------------------------------|
A|--------------------------------------------------------------------------|
E|--------------------------------------------------------------------------|

e|--------------------------------------------------------------------------|
B|--------------------------------------------------------------------------|
G|-97~---------------------------------------------------------------------|
D|-------109~---7/9~-------------------------------------------------------|
A|--------------------------------------------------------------------------|
E|--------------------------------------------------------------------------|

(Solo 2 is played right after solo 1 during "things never shared ")

Solo 2 (2:15) played without a slide
e|--------------------------------------------------------------------------|
B|-8-----------8-------------------------------8----------------------------|
G|---9p7-----7---9p7----7--9-7-9-7-9---9-7-9-----9p7----7-9-7-9-9~--7-9-----|
D|-------7h9---------7h9-------------9--------------7h9---------------------|
A|--------------------------------------------------------------------------|
E|--------------------------------------------------------------------------|

G     D            Am 
      Things never shared
D                 Am           Em
Things that don't mean much to me


G     D            Am
      Things never shared
D                 Am           Em
things that don't mean much to me

(2:39)

G       D     Am
    I'm on my guard
Am             Em  C
wait until you see sometime,

G       D     Am
  whats in my heart
D     Am        Em
good enough for me


| /  slide up
|   slide down
| h  hammer-on
| p  pull-off
| ~  vibrato
| +  harmonic
| x  Mute note
=============================================================================



 
 
Doug Martsch - Heart Things Never Shared Tab :: indexed at Ultimate Guitar.
Heart Things Never Shared tabs @ 911Tabs
People who played Doug Martsch - Heart Things Never Shared Tab also played these songs by Doug Martsch:
Woke Up This Morning With My Mind On Jesus Tab, Heart Things Never Shared Chords, Heart Things Never Shared

Quick tip, so you can enjoy Heart Things Never Shared Tab even more:

Try out the AutoScroller option ... It scrolls the page for you, so you can totally focus on nailing that solo. You can choose among different speeds using your mouse or your keyboard (keys 0, 1, 2 and 3).

Show us your talent, perform Heart Things Never Shared Tab!

Here you can post a video or audio performance. Tell me more ...
Where can we find your performance? Tell me more ...
Your comment:
Please, log in to post your performance.