Artists by letter: A B C D E F G H I J K L M N O P Q R S T U V W X Y Z 0-9

 
Wishful Thinking Tab
  ditty bops official website :  http://www.thedittybops.com/

This is probably not 100% accurate but I will correct it later on so..
INTRO
  |-------0----------2------2---------------------|
  |---0-2--2-----22-4---4>2---5-------------|
  |-1--------3------------4-------4--------4------|
  |-2--------4------------4------------44--|IMMEDIATELY GO TO VERSE
  |------------4----------2-----------------------|
  |-0--------2------------------------------------|

VERSE
 |-------------------------------------------------------------------------|
 |---0---0---0---0------2---2---2---2------4---4---4---4---0---0---0---4---|
 |----1---1---1---1------3---3---3---3------4---4---2---2---1---1---1---4--|
 |---2---2---2---2-2----4---4---4---4-4----4-4-4---4-4-4---2---2---2---4---| X2
 |-----2-------2----------4-------4------2-------2-----------2-------2-----|
 |-0-------0----------2-------2--------------------------0-------0---------|

(BUT THE SECOND TIME DO NOT PLAY THE VERY LAST BIT (444) BUT PLAY THE BIT BEFORE INSTEAD 
IF THAT MAKES NO SENSE LISTEN TO THE SONG AND YOU'LL UNDERSTAND (HOPEFULLY))

CHORUS
 |-------------------------------------------------------------------------|
 |---4---4---4---4---0---0---0---0---4---4---4---4---0---0---0---0---4---4-|
 |---4---4---4---4---1---1---1---1---4---4---4---4---1---1---1---1---4---4-|
 |---4-4-4---4-4-4---2---2---2---2---4-4-4---4-4-4---2---2---2---2---4-4-4-|
 |-2-------2-----------2-------2---2-------2-----------2-------2---2-------|
 |-----------------0-------0-----------------------0-------0---------------|

 |-------------------------------------------------------------------------|
 |---4---4---0-------0------2-------1---1---0---0---0---0------------------|
 |---4---4---1-------1------2-------2---2---1---1---1---1------------------|
 |---4-4-4---2---2---0------2---2---2-2-2---2---2---2---2------------------|
 |-2----------------------0-------0-----------2-------2--------------------|
 |---------0-0-----0-0-------------------0-------0-------------------------|

      ~~VERSE~~

CHORUS
 |------------------------------------------------------------------------|
 |---4---4---4---4--------------------------5-3----4---4---4---4----------|
 |---4---4---4---4-------7------------------4-4----4---4---4---4---9-7/9--|
 |---4-4-4---4-4-4---7/9---9>7>5-5/7-7-5-----------4-4-4---4-4-4----------|
 |-2-------2-----------------------------7-------2-------2---------7-5/7--|
 |-----------------0---------------------------------------------0--------|

 |-------------------------------------------------------------0----------|
 |------------4---4---4---4---0------0---2-------1---1---0---0-0----------|
 |-3/4-3/4----4---4---2---2---1------1---2-------2---2---1---1-1----------|
 |------------4-4-4---4-4-4---2--2---0---2---2---2-2-2---2---2-2----------|
 |-1/2-1/2--2-------2------------------0-------0-----------2---2----------|
 |--------------------------0-0----0-0-----------------0-------0----------|

ENDING
 |-0---0---0---2-------------------------|
 |-2---1---0---2--------2---2---4---4----|
 |-2---2---1---3--------2---2---4---2----|   E13...     Emaj.
 |-2---2---2---4--------4---4---4-4-4----|
 |-0---0---2---4----------4---2----------|
 |---------0---2------2------------------|


  Chords!
E
Why does blood turn brown when it dries
Gb
Why do the tears well up in your eyes
Cb
Why didn't I learn to ride my bike
E                                    Cb
When it was warm and sunny outside

E
Why can't little kids tie their shoes
Gb
Why can't the white people play the blues
Cb
Why can't I fall in love with you
E
It must be because of the seasons

Cb                                            E
When the leaves start falling from the trees
Cb                                            E
When the birds start flirting with the bees
Cb                                    E           E13
When the wind starts blowing from the East to the West
A                    Aminor                E
Maybe you'll be the one that I like best

E
Clouds start forming I can't complain
Gb
'Cause I think we might be in need of some rain
Cb
When it starts pouring
                        E        Cb
Don't hide away without me

E
I bought an umbrella big enough for two
Gb
But it feels pretty empty under here without you
Cb
Dry as a bone but I'm still alone
E
I'm so gray

Cb                                          E
When you're standing in a puddle with wet feet
Cb                                             E    E13
And your head is sore from pounding drops of sleet
Cb                                        E          E13
When the cold and lonely hours put your heart to the test
A                  Aminor               E
Maybe I'll be the one that you like best

       A                 Aminor
If the sky can open its eyes
     E                 Gb
And cry from up above
      Gbminor               Cb
Let's shed some tears of joy
              E13   E
And fall in love

ANY CORRECTIONS OR STUFF YOU WANNA SAY EMAIL ME AT [email protected]!

 
 
Ditty Bops - Wishful Thinking Tab :: indexed at Ultimate Guitar.
Wishful Thinking tabs @ 911Tabs
People who played Ditty Bops - Wishful Thinking Tab also played these songs by Ditty Bops:
Wishful Thinking Chords, Walk Or Ride Chords, Theres A Girl Chords, Wake Up Chords, Walk Or Ride Chords, In The Meantime Chords

Quick tip, so you can enjoy Wishful Thinking Tab even more:

You might want to transpose the song if it is too high or too low for you to sing. Just click the desired option while playing a song and all the chords will automatically be transponded into a new key.

Show us your talent, perform Wishful Thinking Tab!

Here you can post a video or audio performance. Tell me more ...
Where can we find your performance? Tell me more ...
Your comment:
Please, log in to post your performance.