Artists by letter: A B C D E F G H I J K L M N O P Q R S T U V W X Y Z 0-9

 
Lasse Reden Tab
Very Easy Song

by Michel Franceschino


Verse 
e|-------------------------|
B|-------------------------|
G|-4-----------------------|
D|-4--x32---2--------4-----|  x2
A|-2--------2--x16---4x16-|
E|----------0--------2-----|


Chorus (find your own rythm)
e|---------------------------------|
B|---------------------------------|
G|-4-4-4-4-----------6-------------|
D|-4-4-4-4-----2-----6-----6-----4.|
A|-2-2-2-2-----2-----4-----6-----4.|
E|-------------0-----------4-----2.|


Verse 
e|-------------------------|
B|-------------------------|
G|-4-----------------------|
D|-4--x32---2--------4-----|  x2
A|-2--------2--x16---4x16-|
E|----------0--------2-----|


Chorus (find your own rythm)
e|------------------------------------|
B|------------------------------------|
G|-4--4--4--4-----------6-------------|
D|-4--4--4--4-----2-----6-----6-----4.|
A|-2--2--2--2-----2-----4-----6-----4.|
E|----------------0-----------4-----2.|


Bridge:
e|----------------------------|
B|----------------------------|
G|----------------------------|
D|-6----5----4----3----2----2-|
A|-6----5----4----3----2----2-|
E|-4----3----2----1----0----0-|


Bridge:
e|----------------------------|
B|----------------------------|
G|----------------------------|
D|-4.---4.---4.-4.-4.-4444----|
A|-4.---4.---4.-4.-4.-4444----|
E|-2.---2.---2.-2.-2.-2222----|

Verse 
e|-------------------------|
B|-------------------------|
G|-4-----------------------|
D|-4--x32---2--------4-----|  x1
A|-2--------2--x16---4x16-|
E|----------0--------2-----|

Chorus 2
e|------------------------------|
B|------------------------------|
G|-4----------------------------|
D|-4-----2-----4-4-4-4-4-4-4444-|
A|-2-----2-----44-4-4-4-4-4444-|
E|-------0- ---2-2-2-2-2-2-2222-|


Chorus (find your own rythm)
e|------------------------------------|
B|------------------------------------|
G|-4--4--4--4-----------6-------------|
D|-4--4--4--4-----2-----6-----6-----4.|
A|-2--2--2--2-----2-----4-----6-----4.|
E|----------------0-----------4-----2.|


 
 
Die Aerzte - Lasse Reden Tab :: indexed at Ultimate Guitar.
Lasse Reden tabs @ 911Tabs

Quick tip, so you can enjoy Lasse Reden Tab even more:

Try out the AutoScroller option ... It scrolls the page for you, so you can totally focus on nailing that solo. You can choose among different speeds using your mouse or your keyboard (keys 0, 1, 2 and 3).

Show us your talent, perform Lasse Reden Tab!

Here you can post a video or audio performance. Tell me more ...
Where can we find your performance? Tell me more ...
Your comment:
Please, log in to post your performance.