Artists by letter: A B C D E F G H I J K L M N O P Q R S T U V W X Y Z 0-9

 
Into The Night Tab
-------------------------------------------------------------------------------
			     Into the night- Chad Kroeger ft. Santana
-------------------------------------------------------------------------------
Tabbed by: fenderown
Email:

Tuning: Standard
Guitar 1 Chad
e|---------0-------------------------------------------------0--------------|
B|------1-----------------1-3------------1-3---1--------1-3-----------------|
G|---2---------------2--0-----------0--0-----------2--1---------------------|
D|---2------------------2--------------0-------------0----------------------|
A|---o------------------3--------------x-------------0----------------------|
E|-------------------------------------3------------------------------------|

Guitar 2 Carlos
e|-------------------------------------------------------------5------------|
B|--------------------------------5-------------------10-10~----7----------|
G|-----------5-5-4------------5-7---7b5~--------/9-12-------------5-5~-----|
D|-----------------7-5~-----------------------------------------------------|
A|--------------------------------------------------------------------------|
E|--------------------------------------------------------------------------|

Guitar 1
e|---------0-------------------------------------------------0--------------|
B|------1-----------------1-3------------1-3---1--------1-3-----------------|
G|---2---------------2--0-----------0--0-----------2--1---------------------|
D|---2------------------2--------------0-------------0----------------------|
A|---o------------------3--------------x-------------0----------------------|
E|-------------------------------------3------------------------------------|

Guitar 2
e|--------------------------------------------------------------------------|
B|--------------------------------------------------------------------------|
G|---------------Sorry,--tell--me--if--you--liked--and--I'll--do--the--rest-|
D|--------------------------------------------------------------------------|
A|------------------------------------------:)------------------------------|
E|--------------------------------------------------------------------------|

| /  slide up
|   slide down
| h  hammer-on
| p  pull-off
| ~  vibrato
| +  harmonic
| x  Mute note
===============================================================================

 
 
Chad Kroeger - Into The Night Tab :: indexed at Ultimate Guitar.
Into The Night tabs @ 911Tabs
People who played Chad Kroeger - Into The Night Tab also played these songs by Chad Kroeger:
Hero Chords, Into The Night Chords, Hero Tab, Gotta Be Somebody Chords, Into The Night Tab, Into The Night Tab

Quick tip, so you can enjoy Into The Night Tab even more:

Try out the AutoScroller option ... It scrolls the page for you, so you can totally focus on nailing that solo. You can choose among different speeds using your mouse or your keyboard (keys 0, 1, 2 and 3).

Show us your talent, perform Into The Night Tab!

Here you can post a video or audio performance. Tell me more ...
Where can we find your performance? Tell me more ...
Your comment:
Please, log in to post your performance.