Artists by letter: A B C D E F G H I J K L M N O P Q R S T U V W X Y Z 0-9

 
Lt Me Entertain You Tab
                                Queen: Let Me Entertain You
                                    Mercury/1978/Jazz

two guitars (both in the middle)
|------------------------------------------------------------------------------|
|------------------------------------------------------------------------------|
|-4---4p0---0-4---4-----0-4---4-*---0-4---4-----0-4---4------(0)-(0)-----------|
|-2---2p0-----2---2p0-----2---2p0-----2---2p0---0-2---2p0---0-2---2p0-----5----|
|---------2-----------2p0---------2-----------2p0---------2p0---------2p0-5----|
|-------------------------------------------------------------------------3----|

guitars turn panned
|-----------------------------------------------------------------------------------------|
|-----------------------------------3---3-3-3-3-------------------------------------------|
|-4-4---4-4---4-4-------0-4-4---4---0---0-0-0-0-4-----4-4---4-4-2-----0-------------------|
|-2-2p0-2-2p0-2-2p0-------2-2p0-2p0-------------2---0-2-2p0-2-2-0-----0-2p0---------------|
|--------------------2----------------------------------------------2-------2p0-----------|
|-------------------------------------------------------------------------------3-->>>

riff A:
|-----------------------------------------------------------------------------------------|
|-----------------------------------3-----------------------------------------------------|
0-4-4---4-4---4-----------4-4---4---0---------0-4-4---4-4---4-4---------------------------|
0-2-2p0-2-2p0-2-2p0-------2-2p0-2p0-------------2-2p0-2-2p0-2-2-0-----0-2p0---------------|
|---------------------2p0-------------------------------------------2-------2p0-----------|
|-------------------------------------------------------------------------------3-->>>

riff B:
|---------------------------------------------------------------------------------------------------|
|---------------------------------------------------------------------------------------------------|
|-0-2p0-2-----0-2p0-2-----0-2p0-2-2p0-5b------2p0-0-2p0-2-----0-2p0-2-----0-2p0---------------------|
|-0-2p0-2---2---2p0-2---2-0-2p0-2-2p0-5b------2p0-0-2p0-2---2-0-2p0-2---2-------2p0-----------------|
|-----------------------------------------------------------------------------------3---->>>>-3--2-|
|---------------------------------------------------------------------------------------------------|

riff C:
|------------------------------------------------|
|------------------------------------------------|
|------------------------------------------------|
|--------0--2-4---5--4--4-----9-----------------|
|-2---3---------------2--2-----7-----------------|
|------------------------------0-------

|-------------------------------------------|
|-___---------------------------------------|
|-7h9--7--7---------------------------------|
|--------9---8-7-5-7b__9---x-x--------------|
|--------------------------x-x-9-----------|
|------------------------------7-------x---|

1'8"
|----------------------------------|----------------------------|----|---------------------------------|
|----------------------------------|----------------------------|----|---------------------------------|
|-
|-
|-------------2---2p0-2p0-----0...-|----------------------------|----|---------------------------------|
|-------------------------3p0------|-5-5-3---3------5-5-3---3---|----|-5-5-0---0---0---0---0---0---0---|

riff A, riff B, riff C, X

|-----------------------------------------------------------------------------------------|
|-___-----------------------------------------------2-4-2---------------------------------|
|-7h9--7---7------------------------------4-2-44----2-4-2---------------------------------|
|---------9---8-7-5-7b9--b9--b9__7p5------4-2-44----2-4-22--------------------------------|
|---------------------------------------..------------------------------------------------|
|------------------------------------2...-------2...------2----222----222----222-2-22222--|

A    G  F#  B   
B|-12h13p12h13phphphph..|


        |-----------------------------|--------------------------------------------------------------|
        |-----------------------------|--------------------------------------------------------------|
        |-------...0-2-2-0------------|--------------------------------------------------------------|
riff A, |riff B -----------2-2-0------|--------0--2-4---------0--2-4---------0--2-4-5-4--4----------|
        |------------------------3----|-2---3----------2---3----------2---3------------2--2----------|
        |-----------------------------|-------------------------------------------------------0------|

solo:
|(0)---------------------------------------------------------------|
|-x17b19----17b19----17b19---17---14-------------------------------|
|------------------------------------16-14----------------14tr---|
|--------------------------------------------16--14-x-(0)----------|
|------------------------------------------------------------------|
|------------------------------------------------------------------|

|---------------------------------------------------------------------------------------------------------|
|---------------------------------------------------------------------------------------------------------|
|-x4----------------------------------------14p11-14p11-14p11-14b16-14------16---16p14----14--------------|
|-x4---2------------------------------------14p11-14p11-14p11-14b16-14------16---16p14-16-14-16---16p14---|
|----------4-2-0-----------------------------------------------------------------------16----16---16p14---|
|------------------2---2-2-2-0trA/c#A------------------------------------------------------------------|



 
 
Queen - Lt Me Entertain You Tab :: indexed at Ultimate Guitar.
Lt Me Entertain You tabs @ 911Tabs

Quick tip, so you can enjoy Lt Me Entertain You Tab even more:

If you don't really know how to deal with "Absus4" chord and his equally confusing brothers, just put the mouse cursor over them and you will be shown a helpful chord diagram.

Show us your talent, perform Lt Me Entertain You Tab!

Here you can post a video or audio performance. Tell me more ...
Where can we find your performance? Tell me more ...
Your comment:
Please, log in to post your performance.