Artists by letter: A B C D E F G H I J K L M N O P Q R S T U V W X Y Z 0-9

 

In The Lap Of The Gods Tab
Queen: In The Lap Of The Gods... Rrevisited

32"
|-------2-----------------------------------------------------------------2--|
|-2-3-2-3-------------------------2----------------------------------2----3--|
|-2-2-2-2-------------------------2----------------------------------2----2--|
|-2-2-2-0------0------------------2---7------------------------------2----0--|
|-0-0-0-----3----2---7---5--7-4---0---5---4--5-7---6--7-/10-----10-5-------|
|-----------------------------------------5----------------------------------|

1'25"
|-----------2----------------------------------------------------------------|
|-22--2-22--3-------------------------2-----------------------------------2--|
|-22--2-22--2-------------------------2-----------------------------------2--|
|-22--2-22--0------0------------------2--(7)------------------------------2--|
|-00--0-00------3----2---7---5--7-4-----5---4v--5-7---6--7-/10-----10-5--|
|--------------------------------------------(5)-----------------------------|
...



 
 
Queen - In The Lap Of The Gods Tab :: indexed at Ultimate Guitar.
In The Lap Of The Gods tabs @ 911Tabs

Quick tip, so you can enjoy In The Lap Of The Gods Tab even more:

If you don't really know how to deal with "Absus4" chord and his equally confusing brothers, just put the mouse cursor over them and you will be shown a helpful chord diagram.

Show us your talent, perform In The Lap Of The Gods Tab!

Here you can post a video or audio performance. Tell me more ...
Where can we find your performance? Tell me more ...
Your comment:
Please, log in to post your performance.