Artists by letter: A B C D E F G H I J K L M N O P Q R S T U V W X Y Z 0-9

 
Hasta El Final Tab
Para tokar esta rola necesitan afinar su guitarra en C y va masomenos asi:

Intro(Dist)
D-------------15-----------15------------12-13-12-|
A------15-13-------15-13-------15-13-13-----------|
F-12----------------------------------------------|
C-------------------------------------------------|
G-------------------------------------------------|
C-------------------------------------------------|

x2
D---3333-----3333-----3333-----3333-----------------------------------|
A---------------------------------------------------------------------|
F-4/55554-44/55554-44/55554-44/33332--1212121277/999-1212121277/999-|
C-x-xxxxx-xx-xxxxx-xx-xxxxx-xx-xxxxx---x-x-x-x-xx-xxx--x-x-x-x-xx-xxx-|
G-2/33332-22/33332-22/33332-22/33332--1010101055/777-1010101055/777-|
C---------------------------------------------------------------------|

Verso(clean)
D--------------------------------------------|
A-8----------))-))-))-----8---------|
F----7-5(5)-----))-))-)))----4-5(5)-|
C--------------------------------------------|
G--------------------------------------------|
C--------------------------------------------|

D--------------------------------------------|
A-8----------8----------8----------8---------|
F----7-5(5)-----7-5(5)-----7-5(5)-----4-5(5)-|
C--------------------------------------------|
G--------------------------------------------|
C--------------------------------------------|

Precoro   x4
D-----------------------------------------|
A-----------------------------------------|
F-----------------------------------------|
C-1010--9-9------1010--9-9------1010--9-9-|
G-1010-1010-1010-1010-1010-1010-1010-1010-|
C-----------------------------------------|
pm . .  . .  . .  . .  . .  . .  . .  . .

Coro   x2
D---3333-----3333-----3333-----3333----3333-----3333--------------|
A-----------------------------------------------------------------|
F-4/55554-44/55554-44/55554-44/33332-4/55554-44/55554-12-12-12-12-|
C-x-xxxxx-xx-xxxxx-xx-xxxxx-xx-xxxxx-x-xxxxx-xx-xxxxx--x--x--x--x-|
G-2/33332-22/33332-22/33332-22/33332-2/33332-22/33332-10-10-10-10-|
C-----------------------------------------------------------------|

x1
D---3333-----3333-----3333-----3333-----------------------------------|
A---------------------------------------------------------------------|
F-4/55554-44/55554-44/55554-44/33332--1212121277/999-1212121277/999-|
C-x-xxxxx-xx-xxxxx-xx-xxxxx-xx-xxxxx---x-x-x-x-xx-xxx--x-x-x-x-xx-xxx-|
G-2/33332-22/33332-22/33332-22/33332--1010101055/777-1010101055/777-|
C---------------------------------------------------------------------|

Verso(clean)
D--------------------------------------------|
A-8----------))-))-))-----8---------|
F----7-5(5)-----))-))-)------4-5(5)-|
C------------------------------)----------|
G--------------------------------------------|
C--------------------------------------------|

D--------------------------------------------|
A-8----------8----------8----------8---------|
F----7-5(5)-----7-5(5)-----7-5(5)-----4-5(5)-|
C--------------------------------------------|
G--------------------------------------------|
C--------------------------------------------|

Precoro   x4
D-----------------------------------------|
A-----------------------------------------|
F-----------------------------------------|
C-1010--9-9------1010--9-9------1010--9-9-|
G-1010-1010-1010-1010-1010-1010-1010-1010-|
C-----------------------------------------|
pm . .  . .  . .  . .  . .  . .  . .  . .

Coro   x2
D---3333-----3333-----3333-----3333----3333-----3333--------------|
A-----------------------------------------------------------------|
F-4/55554-44/55554-44/55554-44/33332-4/55554-44/55554-12-12-12-12-|
C-x-xxxxx-xx-xxxxx-xx-xxxxx-xx-xxxxx-x-xxxxx-xx-xxxxx--x--x--x--x-|
G-2/33332-22/33332-22/33332-22/33332-2/33332-22/33332-10-10-10-10-|
C-----------------------------------------------------------------|

Interlude
D-----------------------------------|
A-----------------------------------|
F-7--7~7---7--7~7---7--7~7---7--7~7-|
C-7--7~7---7--7~7---7--7~7---7--7~7-|
G-5--5~5---5--5~5---5--5~5---5--5~5-|
C-----------------------------------|

x4
D-----------------------------------------|
A-----------------------------------------|
F-----------------------------------------|
C-1010--9-9------1010--9-9------1010--9-9-|
G-1010-1010-1010-1010-1010-1010-1010-1010-|
C-----------------------------------------|
pm . .  . .  . .  . .  . .  . .  . .  . .

x4
D-----------------------------------------|
A-----------------------------------------|
F-----------------------------------------|
C-1010--9-9------1010--9-9------1010--9-9-|
G-1010-1010-1010-1010-1010-1010-1010-1010-|
C-----------------------------------------|
pm . .  . .  . .  . .  . .  . .  . .  . .

Gtr2
D----------------------------------------- ------|
A------------------------------------- --|
F---------------------------------- ------|
C-------------------------------------- ------|
G----------------------------------------- ------|
C----------------------------------------- ------|

Coro   x2
D---3333-----3333-----3333-----3333----3333-----3333--------------|
A-----------------------------------------------------------------|
F-4/55554-44/55554-44/55554-44/33332-4/55554-44/55554-12-12-12-12-|
C-x-xxxxx-xx-xxxxx-xx-xxxxx-xx-xxxxx-x-xxxxx-xx-xxxxx--x--x--x--x-|
G-2/33332-22/33332-22/33332-22/33332-2/33332-22/33332-10-10-10-10-|
C-----------------------------------------------------------------|

Final
D--------------------------------------------------------------|
A--------------------------------------------------------------|
F-999999-7777-1212--999999-7777-1212--999999-7777--12-12-12-12-|
C-xxxxxx-xxxx--x-x--xxxxxx-xxxx--x-x--xxxxxx-xxxx---x--x--x--x-|
G-777777-5555-1010--777777-5555-1010--777777-5555--10-10-10-10-|
C--------------------------------------------------------------|

D------------------------------------------------------------------|
A------------------------------------------------------------------|
F-999999-7777-1212--999999-7777-1212--999999-7777-1212121212121212-|
C-xxxxxx-xxxx--x-x--xxxxxx-xxxx--x-x--xxxxxx-xxxx--x-x-x-x-x-x-x-x-|
G-777777-5555-1010--777777-5555-1010--777777-5555-1010101010101010-|
C------------------------------------------------------------------|

Si tienen alguna duda o comentario escriban a: [email protected]
Ha y recuerden q esta tab es la original(por si la ponen en otra pag con otro nombre)
-SiK-

 
 
Qbo - Hasta El Final Tab :: indexed at Ultimate Guitar.
Hasta El Final tabs @ 911Tabs

Quick tip, so you can enjoy Hasta El Final Tab even more:

You might want to transpose the song if it is too high or too low for you to sing. Just click the desired option while playing a song and all the chords will automatically be transponded into a new key.

Show us your talent, perform Hasta El Final Tab!

Here you can post a video or audio performance. Tell me more ...
Where can we find your performance? Tell me more ...
Your comment:
Please, log in to post your performance.