Artists by letter: A B C D E F G H I J K L M N O P Q R S T U V W X Y Z 0-9

 
Light Up The Sky Tab
by [email protected]
shc lucena 09287150674 

Tuning-{e b g d A E}

Intro-
Guitar1
|-------------------------------------------------|
|-------------------------------------------------|
|-5-5-5-55-5-5-5-555--5-5-5-55-555-----555--------|
|-------------------------------------------------|
|-------33-5-5-5------------35--------------------|
|-5-5-5----------333--5-5-5----333-----333--------|

Verse1-
Guitar1
|----------------------------------------------|
|----------------------------------------------|
|-5-5-5-55-5-5-5-555--5-5-5-55-5-5-5-555---555-|
|----------------------------------------------|2x
|-------33-5-5-5------------33-5-5-5-----------|
|-5-5-5----------333--5-5-5----------333---333-|



Guitar2
|----------------------------------------------|
|----------------------------------------------|
|----------------------------------------------|
|----------------------------------------------|2x
|-------33-5-5-5------------33-5-5-5-----------|
|-5-5-5----------333--5-5-5---------333---333--|




Rerfrain-   
Guitar1      
|------------------------------------------------|
|------------------------------------------------|
|-5-5-5-5-5-5-5-5---555--5-5-5-5-5--5-5-5---555--|
|------------------------------------------------|
|-------3-5--------------------3-5---------------|
|-5-5-5-----3-3-3---333--5-5-5------3-3-3---333--|

Guitar2
|------------------------------------------------|
|------------------------------------------------|
|------------------------------------------------|
|------------------------------------------------|
|-------3-5--------------------3-5---------------|
|-5-5-5-----3-3-3---333--5-5-5------3-3-3---333--|

??//??//??
|-------8------8---------------8----8------------|
|---/10----10----10-8-/10-8-10--10---------------|
|------------------------------------------------|
|------------------------------------------------|
|------------------------------------------------|
|------------------------------------------------|

Guitar1
|------------------------------------------------|
|------------------------------------------------|
|-5-5-5-5-5-5-5-5---555--5-5-5-5-5--5-5-5---555--|
|------------------------------------------------|
|-------3-5--------------------3-5---------------|
|-5-5-5-----3-3-3---333--5-5-5------3-3-3---333--|

Guitar2
|--------------------------------------------|
|--------------------------------------------|
|--------------------------------------------|
|--------------------------------------------|
|-------3-5--------------------3-5--55555555-|
|-5-5-5-----3-3-3---333--5-5-5------33333333-|



Chorus-

Guitars 1 & 2-
|--------------------------------------------|
|--------------------------------------------|
|--------------------------------------------|
|--------------------------------------------|2x
|-33333333-333333333-555555555-33333333------|
|-00000000-111111111-333333333-11111111------|

Guitar 3-violin
|---8-7-8-----8-7-8-----8-7-8--10-12-10--87-----|
|-8------8--8-------8-8---------------------8---|
|-----------------------------------------------|
|-----------------------------------------------|2x
|-----------------------------------------------|
|-----------------------------------------------|


Continued...
Guitar1
|-------------------------------------------------|
|-------------------------------------------------|
|-5-5-5-55-5-5-5-555--5-5-5-55-555-----555---5----|
|-------------------------------------------------|
|-------33-5-5-5------------35--------------------|
|-5-5-5----------333--5-5-5----333-----333---5~---|


Guitar2
|-------------------------------------------------|
|-------------------------------------------------|
|-------------------------------------------------|
|-------------------------------------------------|
|-------33-5-5-5------------35--------------------|
|-5-5-5----------333--5-5-5----333-----333---5~---|


Verse-

Guitar3=violin
|-----------------------|
|-----------------------|
|-9~-p5h7p5--5p4h5--/2~-|
|-----------------------|2x
|-----------------------|
|-----------------------|

Rerfrain 3X    
Guitar1      
|------------------------------------------------|
|------------------------------------------------|
|-5-5-5-55--5-5-5---555--5-5-5-5-5--5-5-5---555--|
|------------------------------------------------|
|-------3-5--------------------3-5---------------|
|-5-5-5-----3-3-3---333--5-5-5------3-3-3---333--|


Guitar2
|------------------------------------------------|
|------------------------------------------------|
|------------------------------------------------|
|------------------------------------------------|
|-------3-5--------------------3-5---------------|
|-5-5-5-----3-3-3---333--5-5-5------3-3-3---333--|


Guitar1
|-------------------------------------------------|
|-------------------------------------------------|
|------5-5-5-5-5-5-5-5---555--5-5-5-5-5--55555555-|
|-------------------------------------------------|
|-xxxxx------3-5--------------------3-5-----------|
|-xxxxx5-5-5-----3-3-3---333--5-5-5------33333333-|

Guitar2
|-------------------------------------------------|
|-------------------------------------------------|
|-------------------------------------------------|
|-------------------------------------------------|
|-xxxxx------3-5--------------------3-5--55555555-|
|-xxxxx5-5-5-----3-3-3---333--5-5-5------33333333-|

Chorus-
1.
Guitars 1& 2
|--------------------------------------------|
|--------------------------------------------|
|--------------------------------------------|
|--------------------------------------------|2x
|-33333333-333333333-555555555-33333333------|
|-00000000-111111111-333333333-11111111------|

Guitar 3-violin
|---8-7-8-----8-7-8-----8-7-8--10-12-10--87-----|
|-8------8--8-------8-8---------------------8---|
|-----------------------------------------------|
|-----------------------------------------------|2x
|-----------------------------------------------|
|-----------------------------------------------|


2.

Guitar 1
|--------------------------------------------|
|--------------------------------------------|
|--------------------------------------------|
|--------------------------------------------|2x
|-33333333-333333333-555555555-33333333------|
|-00000000-111111111-333333333-11111111------|

Guitar 2
|-------------------10------------------10---|
|----1313------1313-----1313-------1313------|
|-12-----12--12-------12----12--12-----------|
|--------------------------------------------|Repeated xxx
|--------------------------------------------|
|--------------------------------------------|


Guitar 3-violin
|---8-7-8-----8-7-8-----8-7-8--10-12-10--87-----|
|-8------8--8-------8-8---------------------8---|
|-----------------------------------------------|
|-----------------------------------------------|2x
|-----------------------------------------------|
|-----------------------------------------------|




Continued ...


Bridge-PM

Guitar1
|----------------------------------------|
|----------------------------------------|
|----------------------------------------|
|----------------------------------------|2x
|-7777777-5555555-33333333-33333333------|
|-5555555-3333333-00000000-11111111------|

Guitar1
|------------------------------------------|
|------------------------------------------|
|------------------------------------------|
|------------------------------------------|2x
|-3333333-3333333-77777777-555555555-------|
|-1111111-0000000-55555555-333333333-------|

Continued...
|------------------------------------------|
|------------------------------------------|
|------------------------------------------|
|------------------------------------------|2x
|-55555555-33333333-33333333--33333333-----|
|-33333333-11111111-00000000--11111111-----|



Guitar 1
|--------------------------------------------|
|--------------------------------------------|
|--------------------------------------------|
|--------------------------------------------|2x
|-33333333-333333333-555555555-33333333------|
|-00000000-111111111-333333333-11111111------|


Chorus-
1.
Guitars 1& 2
|--------------------------------------------|
|--------------------------------------------|
|--------------------------------------------|
|--------------------------------------------|2x
|-33333333-333333333-555555555-33333333------|
|-00000000-111111111-333333333-11111111------|

Guitar 3-violin
|---8-7-8-----8-7-8-----8-7-8--10-12-10--87-----|
|-8------8--8-------8-8---------------------8---|
|-----------------------------------------------|
|-----------------------------------------------|2x
|-----------------------------------------------|
|-----------------------------------------------|


2.

Guitar 1
|--------------------------------------------|
|--------------------------------------------|
|--------------------------------------------|
|--------------------------------------------|2x
|-33333333-333333333-555555555-33333333------|
|-00000000-111111111-333333333-11111111------|

Guitar 2
|-------------------10------------------10---|
|----1313------1313-----1313-------1313------|
|-12-----12--12-------12----12--12-----------|
|--------------------------------------------|Repeated xxx
|--------------------------------------------|
|--------------------------------------------|


Guitar 3-violin
|---8-7-8-----8-7-8-----8-7-8--10-12-10--87-----|
|-8------8--8-------8-8---------------------8---|
|-----------------------------------------------|
|-----------------------------------------------|2x
|-----------------------------------------------|
|-----------------------------------------------|

Outro-
Guitar1
|-------------------------------------------------|
|-------------------------------------------------|
|-5-5-5-55-5-5-5-555--5-5-5-55-555-----555--------|
|-------------------------------------------------|
|-------33-5-5-5------------35--------------------|
|-5-5-5----------333--5-5-5----333-----333--------|

Guitar2
|-------------------------------------------------|
|-------------------------------------------------|
|-------------------------------------------------|
|-------------------------------------------------|
|-------33-5-5-5------------35--------------------|
|-5-5-5----------333--5-5-5----333-----333--------|

Guitar1
|----------------------------------------|
|----------------------------------------|
|-5-5-5-55-5-5-5-555--5-5-5-55--5--------|
|----------------------------------------|
|-------33-5-5-5------------35-----------|
|-5-5-5----------333--5-5-5-----3~-------|


Guitar2
|----------------------------------------|
|----------------------------------------|
|----------------------------------------|
|----------------------------------------|
|-------33-5-5-5------------35-----------|
|-5-5-5----------333--5-5-5-----3~-------|





 
 
Yellowcard - Light Up The Sky Tab :: indexed at Ultimate Guitar.
Light Up The Sky tabs @ 911Tabs

About the artist behind Light Up The Sky Tab:

Yellowcard is an alternative rock multi-platinum selling band from Jacksonville, Florida. Their music features a rare contribution to the genre, incorporating the use of a violin.

The band is not currently active and is on a self-described "indefinite hiatus."

Indexed at Wikipedia.

Show us your talent, perform Light Up The Sky Tab!

Here you can post a video or audio performance. Tell me more ...
Where can we find your performance? Tell me more ...
Your comment:
Please, log in to post your performance.