Artists by letter: A B C D E F G H I J K L M N O P Q R S T U V W X Y Z 0-9

 
Sun Is Shining Tab
The Sun is Shining
Third Day
Wherever You Are

After Careful study of this song I have finished it, it's 100% correct folks, and ready 
be played everywhere you desire, Pray that Third Day continues to write such wonderful 
songs. Praise God in everything.


Standard Tuning

Verse
Gtr 1 (Acoustic)
E|-0-0--0--0-0---0-0-0-0-|-0-0--0-0----0-0-0-0----|
B|-0-0--0--0-0---0-0-0-0-|-0-0--0-0----0-0-0-0----|
G|-6-6--6--6-6---6-6-6-6-|-6-6--6-6----6-6-6-6----|
D|-7-7--7--7-7---7-7-7-7-|-6-6--6-6----6-6-6-6----|
A|-----------------------|------------------------|
E|-----------------------|------------------------|

E|------0-0--0-0--0--0-0-|-2---2----2h3-2--2-0--0-0--|
B|------0-0--0-0--0--0-0-|-3---3----3---3--3-3--0-0--|
G|-6-6--6-6--6-6--6------|-2---2----2---2--2-2-------|
D|-5-6--5-5--5-5--5------|-0-0-0--0-----0--0-0-------|
A|-0-5----0--0-0---------|---0-0--0------------------|
E|-----------------------|---------------------------|

Gtr 2
E|----------0--------|-------0----|---------0---------|-------2---------|
B|-----0------0------|-----0------|-----0------0------|-----3-----------|
G|---6---6------6----|---6--------|---6---6------6----|---2-------------|
D|-7--------------7--|-6----------|-5--------------5--|-4---------------|
A|-------------------|------------|-------------------|-----------------|
E|-------------------|------------|-------------------|-----------------|

Pre-chorus
Gtr 2
E|-------1--0-------|---------0---|-------1--0--------|---------------|
B|-----3------3-----|-------0-----|-----3------3------|--------0------|
G|---2----------2---|---2---------|---2----------2----|------7--------|
D|-0--------------3-|-------------|-0--------------3--|----6----------|
A|------------------|-------------|-------------------|-/7------------|
E|------------------|-------------|-------------------|---------------|
 |                                                                   |
E|-1----------------|---0-----0---|-1----------1--1-1-|--0------------|
B|-3-----------1----|---0-----0---|-3----------3--3-3-|--0------------|
G|-2-----------2----|---2-----2---|-2----------2--2-2-|--1------------|
D|-0-----------3-0-0|---2-----2---|-0----------0--0-0-|--2------------|
A|-------------0-0-0|---0-----0-0-|-------------------|--2------------|
E|------------------|-------------|-------------------|--0------------|

Chorus
E|--5---------------|-------------|--7----------------|--(7)------------|
B|--5---------------|-------------|--7----------------|--(7)------------|
G|--6---------------|--9----------|--7----------------|--(7)------------|
D|--7---------------|--9----------|--9----------------|--(9)------------|
A|------------------|--7----------|--9----------------|--(9)------------|
E|------------------|-------------|--7----------------|--(7)------------|
 |                                                                     |
E|--0--0---0-0--0-0-|--0---0--0-0-|--2--2------2-2--2-|--2-2---2--0-0---|
B|--2--2---2-2--2-2-|--0---0--0-0-|--3--3------3-3--3-|--3-3---3--0-0---|
G|--2--2---2-2--2-2-|--1---1------|--4--4------4------|--4-4---4--------|
D|--2--2---2-2--2-2-|--2---2------|--4--4------4------|--4-4---4--------|
A|--0-0---0-0--0-0-|--2---2------|--2--2------2------|--2-2---2--------|
E|------------------|--0---0------|-------------------|-----------------|

E|--5---------------|-------------|--7----------------|---5-------------|
B|--5---------------|-------------|--7----------------|---6-------------|
G|--6---------------|--9----------|--7----------------|---7-------------|
D|--7---------------|--9----------|--9----------------|---7-------------|
A|------------------|--7----------|--9----------------|---5-------------|
E|------------------|-------------|--7----------------|-----------------|
 |
E|--0--0----0--0-0--|--0--0----0--|--2--2-------------|---1-------------|
B|--2--2----2--0-0--|--0--0----0--|--3--3-------------|---3-------------|
G|--2--2----2-------|--1--1----1--|--4--4-------------|---2-------------|
D|--2--2------------|--2--2----2--|--4--4-------------|---0-------------|
A|--0--0--0---------|--2--2------0|--2--2-------------|-----------------|
E|------------------|--0--0--0----|-------------------|-----------------|

Guitar 2
E|-----------------------------------------|
B|-----------------------------------------|
G|-----------------------------------------|
D|--2----5---4--0--2(2)----5-4---/12--11--|
A|--0--0---0-------------0--0--------------|
E|-----------------------------------------|

Then Verse 2 play
E|--------------------------0--------------------|
B|--------------------------0--------------------|
G|--------------------------x--------------------|
D|----11---11-11-11-12--11--9--11-11-11---(x3)---|
A|--0--0-0--0--0--0--0---0--0---0--0--0----------|
E|-----------------------------------------------|
Then
E|-----------------------------------------------|
B|-----------------------------------------------|
G|-----x-11-x-x-11--12--12--12--11-11-11---------|
D|-x-x-x--0-x-x--0---0---0---0---0--0--0---------|
A|-x-x-------------------------------------------|
E|-----------------------------------------------|

Pre-chorus is Dm, A, Dm, E

Chorus
Gt 1
  Asus          E            Bm            Dm
E|---------0--|--------0---|------------|--------------|
B|------------|------0-----|--------4---|--3-------3---|
G|----0-------|----1-------|--4---4-----|--------2-----|
D|--2----2----|--2---------|----5-------|------3-------|
A|------------|------------|------------|--------------|
E|------------|------------|------------|--------------|

  Asus          E            Bm            Dm
E|---------0--|--------0---|------------|--------------------------|
B|------------|------0-----|--------4---|--3----------3------------|
G|----0-------|----1-------|--4---4-----|--------2--------2--------|
D|--2----2----|--2---------|----5-------|------3---3----3----------|
A|------------|------------|------------|--------------------------|
E|------------|------------|------------|--------------------------|

Bridge
Gtr 1
E|------------------------------|------------------|---------------------|
B|-4--4-x-x-x-4--4-4------------|------------------|---------------------|
G|-4--4-x-x-x-4--4-4--------(x2)|--------------6-6-|--------------6--6-4-|
D|-4--4-x-x-x-4--4-4-4-4-4------|-4-4-6--6-7-7-x-x-|-4-4-6-6--7-7-x--x-x-|
A|-2--2-x-x-x-2--2-2-2-2-2------|-x-x-x--x-x-x-4-4-|-x-x-x-x--x-x-4-4-2-|
E|------------------------------|-2-2-4--4-5-5-----|-2-2-4-4--5-5--------|
 |
E|------------------------------|------------------|---------------------|
B|-4--4-x-x-x-4--4-4-------0----|------------------|---------------------|
G|-4--4-x-x-x-4--4-4-------0----|------------------|---------------------|
D|-4--4-x-x-x-4--4-4-4-4-4-0----|------------------|---------------------|
A|-2--2-x-x-x-2--2-2-2-2-2-0----|-4-4-4--4-4-4-4-4-|-4-4-4--4-4-4-4-4--4-|
E|------------------------------|-2-2-2--2-2-2-2-2-|-2-2-2--2-2-2-2-2--2-|

E|-----------------------------|-------------------------|
B|-----------------------------|-------------------------|
G|-7--7--6-6-6-111111/-14-x--x-|-------------------------|
D|-x--x--x-x-x--x-x-x---x-x--x-|-9--9--9--9-9-9--9-9-----|
A|-5--5--4-4-4--9-9-9/-12x--x-|-7--7--7--7-7-7--7-7-----|
E|-----------------------------|-------------------------|
 |                                                      |
E|-----------------------------|-------------------------|
B|-----------------------------|-------------------------|
G|-----------------------------|-------------------------|
D|-7-7--7-7-7--7-7-7---7--7-7--|-9--9--9--9-9-9--9-9-----|
A|-5-5--5-5-5--5-5-5---5--5-5--|-7--7--7--7-7-7--7-7-----|
E|-----------------------------|-0--0--0--0-0-0--0-0-----|

Chorus
Gtr 1
E|----------0--------|-------------0-----------|
B|------0-----0------|-------0-------0---------|
G|----6---6-----6----|----13---13------13------|
D|--7-------------7--|-14-----------------14---|
A|-------------------|-------------------------|
E|-------------------|-------------------------|


Chorus
Gt 1
  Asus          E            Bm            Dm
E|---------0--|--------0---|---------------|--------------|
B|----0-------|------0-----|---------------|--3-------3---|
G|--2---2-----|----1-------|--4------4-----|--------2-----|
D|------------|--2---------|-------4-------|------3-------|
A|------------|------------|----5----------|--------------|
E|------------|------------|---------------|--------------|

Asus          E            Bm            Dm
E|---------0---|--------0---|------------|--------------------------|
B|-----0-------|------0-----|--------4---|--3----------3------------|
G|--2----2-----|----1-------|--4---4-----|--------2--------2--------|
D|-------------|--2---------|----5-------|------3---3----3----------|
A|-------------|------------|------------|--------------------------|
E|-------------|------------|------------|--------------------------|

Outro

Gtr1
E|------------|--------0---|--------0---|----------------|
B|------0-----|------0-----|------0-----|------3---------|
G|----6-------|----6-------|----6-------|----2-----------|
D|--7---------|--6---------|--5---------|--4-------------|
A|------------|------------|------------|----------------|
E|------------|------------|------------|----------------|

E|-------------------------------|
B|--7---9--10--12---12/14--------|
G|--x---x--x---x-----x--x--------|
D|--4---6--7---9-----9/11--------|
A|-------------------------------|
E|-------------------------------|

 
 
Third Day - Sun Is Shining Tab :: indexed at Ultimate Guitar.
Sun Is Shining tabs @ 911Tabs

About the artist behind Sun Is Shining Tab:

Third Day is a CCM band formed in Marietta, Georgia during the 1990s. The band was founded by lead singer Mac Powell and guitarist Mark Lee. The other band members are Tai Anderson (bass), and David Carr (drums). The band's name is a reference to the biblical account of Jesus rising from the dead on the third day following his crucifixion.

Indexed at Wikipedia.

Show us your talent, perform Sun Is Shining Tab!

Here you can post a video or audio performance. Tell me more ...
Where can we find your performance? Tell me more ...
Your comment:
Please, log in to post your performance.