Artists by letter: A B C D E F G H I J K L M N O P Q R S T U V W X Y Z 0-9

 
Your Guardian Angel Tab
Artist : Red Jumpsuit Apparatus
song : "Your Guardian Angel"
Album : Don't You Fake It

Tabbed By : Pieper1

Tuning : Drop C

(For any of you who aren't sure of the tuning)

E - Down 2 steps - C
A - Down 1 Step - G
D - Down 1 Step - C
G - Down 1 Step - F
B - Down 1 Step - A
e - Down 1 Step - D

not tryin to steal your thunder there joe627...cuz your tab was pretty awesome
but i too had some slight adjustments and i also tabbed out the second guitar for you guys.

this is song is absolutely amazing...by far my favorite on DYFI.
i enjoyed learning it and i hope that i did a good job on the 2nd guitar (it was a 
hard to hear)

any questions, comments, corrections...just feel free to email me.

have fun everyone!

 *** -- GUITAR 1 -- ***
========================
Intro
-----
D|---------------------------|---------------------------|
A|---------------------------|---------------------------|
F|-------------------h777777-|---------------------7-5-4-|
C|-5-555h7777-7-5-555-555555-|-0-000-0h777-7p4-444-0-0-0-|
G|-5-555-5555-5-5-555-555555-|-0-000-0--00-0---000-0-0-0-|
C|-5-555-5555-5-5-555-555555-|-0-000-0--00-0---000-0-0-0-|

D|---------------------------|----------------------------|
A|---------------------------|----------------------------|
F|---------------------------|--5-5555-5-555/7-7777-7-777-|
C|-2-22222h444-44h555-55p444-|-43-5555-5-555/7-7777-7-777-|
G|-2-22222--22-22--22-22--22-|-23-3333-3-333-5-5555-5-555-|
C|-2-22222--22-22--22-22--22-|-2--------------------------|

Verse 1
-------
   When I see your............ smile tears roll down.....
D|---------------------------|---------------------------|
A|---------------------------|---------------------------|
F|-------------------h777777-|---------------------7-5-4-|
C|-5-555h7777-7-5-555-555555-|-0-000-0h777-7p4-444-0-0-0-|
G|-5-555-5555-5-5-555-555555-|-0-000-0--00-0---000-0-0-0-|
C|-5-555-5555-5-5-555-555555-|-0-000-0--00-0---000-0-0-0-|
  I can't replace...
D|---------------------------|----------------------------|
A|---------------------------|----------------------------|
F|---------------------------|--5-5555-5-555/7-7777-7-777-|
C|-2-22222h444-44h555-55p444-|-45-5555-5-555/7-7777-7-777-|
G|-2-22222--22-22--22-22--22-|-23-3333-3-333-5-5555-5-555-|
C|-2-22222--22-22--22-22--22-|-2--------------------------|

   And now that I'm strong.....how this world turns cold.
D|---------------------------|---------------------------|
A|---------------------------|---------------------------|
F|-------------------h777777-|---------------------7-5-4-|
C|-5-555h7777-7-5-555-555555-|-0-000-0h777-7p4-444-0-0-0-|
G|-5-555-5555-5-5-555-555555-|-0-000-0--00-0---000-0-0-0-|
C|-5-555-5555-5-5-555-555555-|-0-000-0--00-0---000-0-0-0-|

  know I'll find deep..........inside me I can be the one.
D|---------------------------|----------------------------|
A|---------------------------|----------------------------|
F|---------------------------|--5-5555-5-555/7-7777-7-777-|
C|-2-22222h444-44h555-55p444-|-45-5555-5-555/7-7777-7-777-|
G|-2-22222--22-22--22-22--22-|-23-3333-3-333-5-5555-5-555-|
C|-2-22222--22-22--22-22--22-|-2--------------------------|

Chorus 1
--------
   I will never .........let you fall..
   I'll be there for you through it all
D|---------------------|---------------|
A|---------------------|---------------|
F|---------------------|---------------|
C|-5~~~----------------|-0~~~----------|
G|-5~~~----------------|-0~~~----------|
C|-5~~~----------------|-0~~~----------|

  I'll stand up with you forever.
  Even if saving you....sends me to Heaven.
D|---------------------|---------------------|
A|---------------------|---------------------|
F|---------------------|-5~~~----------------|
C|-2~~~----------------|-5~~~----------------|
G|-2~~~----------------|-3~~~----------------|
C|-2~~~----------------|---------------------|

Bridge
------
                               It's okay
D|---------------------------|---------------------------|
A|---------------------------|---------------------------|
F|-------------------h777777-|---------------------7-5-4-|
C|-5-555h7777-7-5-555-555555-|-0-000-0h777-7p4-444-0-0-0-|
G|-5-555-5555-5-5-555-555555-|-0-000-0--00-0---000-0-0-0-|
C|-5-555-5555-5-5-555-555555-|-0-000-0--00-0---000-0-0-0-|

  It's okay                   It's okay......
D|---------------------------|----------------------------|
A|---------------------------|----------------------------|
F|---------------------------|--5-5555-5-555/7-7777-7-777-|
C|-2-22222h444-44h555-55p444-|-45-5555-5-555/7-7777-7-777-|
G|-2-22222--22-22--22-22--22-|-23-3333-3-333/5-5555-5-555-|
C|-2-22222--22-22--22-22--22-|-2--------------------------|

Verse 2
-------
   Seasons are changing........stars are falling all.....
D|---------------------------|---------------------------|
A|---------------------------|---------------------------|
F|-------------------h777777-|---------------------7-5-4-|
C|-5-555h7777-7-5-555-555555-|-0-000-0h777-7p4-444-0-0-0-|
G|-5-555-5555-5-5-555-555555-|-0-000-0--00-0---000-0-0-0-|
C|-5-555-5555-5-5-555-555555-|-0-000-0--00-0---000-0-0-0-|

   Days grow longer and.........I can show you I'll.......
D|---------------------------|----------------------------|
A|---------------------------|----------------------------|
F|---------------------------|--5-5555-5-555/7-7777-7-777-|
C|-2-22222h444-44h555-55p444-|-45-5555-5-555/7-7777-7-777-|
G|-2-22222--22-22--22-22--22-|-23-3333-3-333/5-5555-5-555-|
C|-2-22222--22-22--22-22--22-|-2--------------------------|

Chorus 2
--------
   I will never .........let you fall..
   I'll be there for you through it all
D|---------------------|---------------|
A|---------------------|---------------|
F|---------------------|---------------|
C|-5~~~----------------|-0~~~----------|
G|-5~~~----------------|-0~~~----------|
C|-5~~~----------------|-0~~~----------|

  I'll stand up with you forever.
  Even if saving you... sends me to Heaven.
D|---------------------|---------------------|
A|---------------------|---------------------|
F|---------------------|-5~~~----------------|
C|-2~~~----------------|-5~~~----------------|
G|-2~~~----------------|---------------------|
C|-2~~~----------------|-3~~~----------------|

Dunno what this part is called...but its my favorite part of the song!!
-----------------------------------------------------------------------
   'Cuz I'm here...............For you...................
D|---------------------------|---------------------------|
A|---------------------------|---------------------------|
F|-------------------h777777-|---------------------7-5-4-|
C|-5-555h7777-7-5-555-555555-|-0-000-0h777-7p4-444-0-0-0-|
G|-5-555-5555-5-5-555-555555-|-0-000-0--00-0---000-0-0-0-|
C|-5-555-5555-5-5-555-555555-|-0-000-0--00-0---000-0-0-0-|

   Please don't walk away......Please tell me....
D|---------------------------|------------------|
A|---------------------------|------------------|
F|---------------------------|-55-55-7-777-7777-|
C|-2-22222h444-44h555-55p444-|-55-55-7-777-7777-|
G|-2-22222--22-22--22-22--22-|-33-33-5-555-5555-|
C|-2-22222--22-22--22-22--22-|------------------|

D|---------------------------|---------------------------|
A|---------------------------|---------------------------|
F|---------------------------|---------------------------|
C|-5-55555-55555-55555-55555-|-0-00000-00000-00000-00000-|
G|-5-55555-55555-55555-55555-|-0-00000-00000-00000-00000-|
C|-5-55555-55555-55555-55555-|-0-00000-00000-00000-00000-|

D|---------------------------|---------------------------|
A|---------------------------|---------------------------|
F|---------------------------|-5-55555-55555-77777-77777-|
C|-2-22222-22222-22222-22222-|-5-55555-55555-77777-77777-|
G|-2-22222-22222-22222-22222-|-3-33333-33333-55555-55555-|
C|-2-22222-22222-22222-22222-|---------------------------|

Chorus 3
--------
   I will never let you fall.......I'll stand up with you.....
   I'll be there for you...........Even if saving you sends...
D|-------------------------------|-----------------------------|
A|-------------------------------|-----------------------------|
F|-------------------------------|-----------------------------|
C|-5-55555-55555-5-55555-5-55555-|-2-22222-22222-2-22222-22222-|
G|-5-55555-55555-5-55555-5-55555-|-2-22222-22222-2-22222-22222-|
C|-5-55555-55555-5-55555-5-55555-|-2-22222-22222-2-22222-22222-|

{Repeat through fade}


 *** -- GUITAR 2 -- ***
========================

Doesn't play during Intro

Doesn't play during Verse 1

Doesn't play during Chorus 1

Verse 2
-------
   Seasons are changing...
   Days grow longer...
D|--------------------|--------------------|
A|--------------------|--------------------|
F|-12-----12-14-12----|-12-----12-14-12----|
C|-----12----------12-|-----12----------12-|
G|--------------------|--------------------|
C|--------------------|--------------------|

D|--------------------|--------------------|
A|--------------------|-----------13-12----|
F|-12-----12-14-12----|-12-----12-------12-|
C|-----12----------12-|-----12-------------|
G|--------------------|--------------------|
C|--------------------|--------------------|

Doesn't play during Chorus 2

Don't know what to call this part
---------------------------------
   'Cuz I'm here....
D|-------------------------------------|
A|-------------------------------------|
F|-15-------13-------12----------------|
C|----12-------12-------12----14-12----|
G|-------12-------12-------12-------12-|
C|-------------------------------------|


D|-------------------------------------|
A|-------------------------------------|
F|-15-------13-------12----------------|
C|----12-------12-------12----14-12----|
G|-------12-------12-------12-------12-|
C|-------------------------------------|

Chorus 3
--------
   I will never let you fall.....
   I'll be there for you.........
D|-------------------------------|
A|---------------7-77777-7-77777-|
F|---------------x-xxxxx-x-xxxxx-|
C|-5-55555-55555-4-44444-4-44444-|
G|-5-55555-55555-----------------|
C|-5-55555-55555-----------------|

   I'll stand up with you.....
   Even if saving you sends...
D|---------------------------------------|
A|---------------8-88888-*10-1010101010*-|
F|---------------x-xxxxx--x--x-x-x-x-x---|
C|-2-22222-22222-5-55555--7--7-7-7-7-7---|
G|-2-22222-22222-------------------------|
C|-2-22222-22222-------------------------|
                          *10's*
{Repeat throuh fade}

 
 
The Red Jumpsuit Apparatus - Your Guardian Angel Tab :: indexed at Ultimate Guitar.
Your Guardian Angel tabs @ 911Tabs

About the artist behind Your Guardian Angel Tab:

The Red Jumpsuit Apparatus (also known as Red Jumpsuit Apparatus or RJA) is a band that formed in 2003 in Jacksonville, Florida. The band consists of lead vocalist Ronnie Winter, lead guitarist Elias Reidy, bassist Joey Westwood, guitarist Duke Kitchens, and drummer Jon Wilkes; all perform back-up vocals. Their debut major label album Don't You Fake It was released on July 18, 2006, and has since been certified platinum.

Indexed at Wikipedia.

Show us your talent, perform Your Guardian Angel Tab!

Here you can post a video or audio performance. Tell me more ...
Where can we find your performance? Tell me more ...
Your comment:
Please, log in to post your performance.