Artists by letter: A B C D E F G H I J K L M N O P Q R S T U V W X Y Z 0-9

 
Battle Magic Tab
Bal-Sagoth - Naked Steel, The Warrior's Saga
"Battle Magic"

Tune down half a step

[Riff A]
----------------------------------------------------------------------
----------------------------------------------------------------------
----------------------------------------------------------------------
-----9---------------12--------------9--------------------------------
-----7---------------10--------------7----------------6---------------
-0-7--------------7-0------------0-7--------------7-0-4---------------

[Riff B]
------------------------------------------------
------------------------------------------------
------------------------------------------------
-------9-----7-6---------7------------------9-9-
-------7-----5-4-------4-5-----5-9-7-5----9-7-7-
-0-7-10------------4-7-------7------------7-----
 
[Riff C]
------------------------------------------------------------------
------------------------------------------------------------------
------------------------------------------------------------------
-------9-----7-6---------7-----5-4----------5-----3-2-------4-----
-------7-----5-4-------4-5-----3-2--------2-3-----1-0---4---2-----
-0-7-10------------4-7---------------2--5---------------2---------
 
-----------------------------------
-----------------------------------
-----------------------------------
-(4)------\9/////21\\\\(9)---
-(2)-------------------------------
-----------------------------------

[Tremelo Picking]
------------------------------------------
------------------------------------------
------------------------------------------
-----6-------4-----3---3------------------
---4-----------------6-------4-6-4-3-3----
-6----------------------------------6---4-

------------------------------------------
------------------------------------------
------------------------------------------
-----6-------4-----3---3------------------
---4-----------------6-------4-6----------
-6----------------------------------------

------------------------------------------
------------------------------------------
------------------------------------------
-----6-------4-----3---3------------------
---4-----------------6-------4-6-4-3-3----
-6----------------------------------6---4-

------------------------------------------
------------------------------------------
------------------------------------------
-----6-------4-----3---3-----4-3---3------
---4-----------------6-----------6--------
-6----------------------------------------

------------------------------------------
------------------------------------------
-------------ph--------ph-----------------
-----6-------4~~---3---3~~----------------
---4-----------------6-------4-6-4-3-3----
/6----------------------------------6--4-

------------------------------------------
------------------------------------------
-------------ph--------ph-----------------
-----6-------4~~---3---3~~---4-3---3~~----
---4-----------------6-----------6--------
/6---------------------------------------

--------------------------------
--------------------------------
--------------------------------
-----9-9----(ph)----------------
-----7-7-----10---10----10-9----
-0-7-----7-0---------12------10-

-----------------------------
-----------------------------
-----------------------------
-----7-7---------------------
-0-5-5-5-5-0-5-7-5---5-------
-------------------8---7-8-5-

[Same as Riff C with added bridge]
--------------------------------------------------------
--------------------------------------------------------
--------------------------------------------------------
-------9-----7-6---------7-----5-4----------5-----3-2---
-------7-----5-4-------4-5-----3-2--------2-3-----1-0---
-0-7-10------------4-7---------------2--5---------------
 
-----------------------------------------
-----------------------------------------
-----------------------------------------
-------4-----2------------------5---4----   
-----0-2-----0-5---3---2---3----3---2----
-0-3-----------3---1---0---1-------------
 
--------------------------------------------------
--------------------------------------------------
--------------------------------------------------
-9"-10"-9"-8"-9"-10"-9"-8"-etc..........----------
--------------------------------------------------
--------------------------------------------------

-----------------
-----------------
-----------------
-----------------
-7---7---7---7---
---7---7---7---7-

[Riff D - slightly difficult to hear]
-------------------------------------
-------------------------------------
--------------------(ph)-----(ph)----
---------------------7~~------5~~----
-7~~~-7-7~~~-10-9-10-----9~~-----5~~-
-------------------------------------

-----------------------------------
-----------------------------------
-----------------------------------
-9~~~-9-7~~~-9-10-9-7--------------
------------------------10~~~~-----
-----------------------------------

------------------------------------------------
------17-15~~-12-12~~~-------13~~~-12~~~~-------
-----------------------14-12--------------14~~~-
-/14~-------------------------------------------
------------------------------------------------
------------------------------------------------

------------------------------------------------
-12---------------------------------------------
----14-1211-------11~~~----------11-122-14~~~--
-------------14~~~-------12~~~-14---------------
------------------------------------------------
------------------------------------------------

------------------------------------------
-/15~~~-17-12~~~-------13~~~-12~~~--------
-----------------14-12-------------14~~~~-
------------------------------------------
------------------------------------------
------------------------------------------

------------------------------------------------
-12---------------------------------------------
----14-1211-------11~~~----------/16~~~-14~~~--
-------------14~~~-------12~~~-14---------------
------------------------------------------------
------------------------------------------------

[repeat]
-------------
-------------
-------------
-2-4---------
-0-2-2-222-2-
-------------

-------------------------------
-------------------------------
-------------------------------
-----------9-10-12-/14-12-10-9-
-5---4---2---------------------
-3---2---0---------------------

-----------------------------------
------------------ph---------------
---------------12-11~~~~-ph--------
-9~~~-10-12~~~-----------10~~~~~---
-----------------------------------
-----------------------------------

-----------------------------------------------
-----------------------------------------------
-----------------------------------------------
-9-12-11-12-7-12-11-12----12-11-12----------9--
-----------------------10----------9-122-10----
-----------------------------------------------

-------------------------------
-------------------------------
-------------------------------
-12----------9--9-------------
-10----2-----7--7-------------
-------0-----------------------

Corrections, Comments, Hate Mail and Death Threats to -
[email protected]

~*jinxx

 
 
Bal-sagoth - Battle Magic Tab :: indexed at Ultimate Guitar.
Battle Magic tabs @ 911Tabs

Quick tip, so you can enjoy Battle Magic Tab even more:

If you spend just 10 seconds to register, you will be able to comment on all the chords and tabs and rate them. You will as well be able to comment on videos of your fellow guitarists and give them ratings from 1 to 5 ... And - of course - you can share your own videos with them and see what they think of you. :)
Click here to join us!

Show us your talent, perform Battle Magic Tab!

Here you can post a video or audio performance. Tell me more ...
Where can we find your performance? Tell me more ...
Your comment:
Please, log in to post your performance.