Artists by letter: A B C D E F G H I J K L M N O P Q R S T U V W X Y Z 0-9

 
Under Siege Tab
Band:  Sepultura
Album: Arise
Song:  Under Siege (Regnum Irae)


Copyright (c)  (Road Runner) (1991)
Version 1.0 - (25/02/07)

Transcribed By: Steve
Email:          [email protected]


.  - palm mute           /  - slide up to
  - slide down to       ~  - vibrato
h  - hammer on           b  - Bend
p  - pull off            Suffixes for bend
t  - tap                 f  - full bend    h - half bend
ph - pinched harmonic    q  - quarter bend t - tap bend
*  - see comment         ^  - Hold bend    r release bend
x  - Stuccatto           ~  - vibrato bend
,  - slight palm mute    () - ghost note, sustained note
"  - tremolo note         - harmonic
pb - pre bend

Tuning E A D G B E


 Intro

 Acoustic guitar
 Fade in
|--------------------------------|
|--------------------------------|
|--------------------0-----0-----|
|-----0--------0---0---0-----0---|
|---5---5----5---4-------4-------|
|-7--------7---------------------| Rpt 5 X

 Drums enter

|------------------|
|------------------|
|---------------0--|
|-----0-------0----|
|---6---6---6------|
|-4-------4--------| Rpt 8 X

 Distorted guitar enters 5th time
      [PM]  [PM] [PM]  [PM] [PM]  
|----------------------------------|
|----------------------------------|
|----------------------------------|
|-76-----6-----6-----6----6----6--|
|-76-----6-----6-----6----6----6--|
|-54-4-4-4-4-4-4-4-4-4-44---44----| Rpt


 Guitar 1
    [-PM-]    PM [-PM-]    PM
[-------------------------------|
[-------------------------------|
[-------------------------------|
[-6-------8-9---6-------8-------|
[-6-------6-7---6-------6-7-----|
[-4-0-0-0-6-7-0-4-0-0-0-6-7-0---|
[Guitar 2 Acoustic
[-0-----------------------------|
[-0-----------------------------|
[-0-----------------------------|
[-2-----------------------------|
[-------------------------------|
[-------------------------------|


    [-PM-]    PM [-PM-]    PM
|-------------------------------|
|-------------------------------|
|-------------------------------|
|-6-------8-9---6-------8-------|
|-6-------6-7---6-------6-7-----|
|-4-0-0-0-6-7-0-4-0-0-0-6-7-0---| Rpt 3 X

 [-------PM------]
|-----------------|
|-----------------|
|-----------------|
|-----------------|
|---6-5-6-6-5---6-|
|-4-----------4---| Rpt 4 X

 Verse

|--------------------------------------|
|--------------------------------------|
|-----------------------------7-7------|
|-6---------------(6)---------6-6------|
|-6---------------(6)------------------|
|-4---------------(4)------------------|

|--------------------------------------|
|--------------------------------------|
|--------------------------------------|
|-6---------------(6)------------------|
|-6---------------(6)------------------|
|-4---------------(4)------------------|

 Rpt
                                        ~~~   ~~~~
|--------------------------------------------------|
|--------------------------------------------------|
|--------------------------------------------------|
|--------------------------------------------------|
|-2---------------(2)---------------/9-7-----------|
|-0---------------(0)----------------------8-6-----| Rpt 3 X

                                        ~~~   ~~~~
|--------------------------------------------------|
|--------------------------------------------------|
|--------------------------------------------------|
|-----------------------------------/119-----------|
|-2---------------(2)---------------/9-7---108-----|
|-0---------------(0)----------------------8-6-----|

  Riff A

    PM   PM
|--------------|
|--------------|
|--------------|
|-6----6---8/9-|
|-6----6---6/7-|
|-4-00-4-0-----| Rpt 8 X

 Verse

 [--------PM---------]       [--------PM---------]
|----------------------------------------------------------|
|----------------------------------------------------------|
|----------------------------------------------------------|
|-----------------------------------------------------4----|
|-----------------------4---4-----------------------4---4--|
|-0-0-0-0-0-0-0-0-0-0/4---4---0-0-0-0-0-0-0-0-0-0-2--------|

 [--------PM---------]       [--------PM---------]
|----------------------------------------------------------|
|----------------------------------------------------------|
|----------------------------------------------------------|
|-----------------------------------------------------4----|
|-----------------------4---4-----------------------4---4--|
|-0-0-0-0-0-0-0-0-0-0/4---4---0-0-0-0-0-0-0-0-0-0-2--------|

 [--------PM---------]       
|-----------------------------|
|-----------------------------|
|-----------------------------|
|-----------------------------|
|-----------------------4---4-|
|-0-0-0-0-0-0-0-0-0-0/4---4---| Rpt 4 X


 Guitar 1
[-------------------------------------------|
[-------------------------------------------|
[-------------------------------------------|
[----------4-3----3-----------4-3---------|
[-2----2---2-1----1--2----2---2-1--3--3---|
[-0----0--------------0----0---------1--1---|
[Guitar 2
[-------------------------------------------|
[-------------------------------------------|
[---------/4-3----3----------/4-3---------|
[-2----2--------------2----2---------3--3---|
[-------------------------------------------|
[-------------------------------------------| Rpt



 Guitar 1
[-------------------------------------------------------------------|
[-------------------------------------------------------------------|
[-------------------------------------------------------------------|
[-6------------------------------(6)--------------------------------|
[-6------------------------------(6)--------------------------------|
[-4------------------------------(4)--------------------------------|
[Guitar 2
[-------------------------------------------------------------------|
[-------------------------------------------------------------------|
[-----------------------------------------------------7-7-7---------|
[-------------------------------------------------------------------|
[-------------------------------------------------------------------|
[-------------------------------------------------------------------|

 Guitar 1
[-------------------------------------------------------------------|
[-------------------------------------------------------------------|
[-------------------------------------------------------------------|
[-6------------------------------(6)--------------------------------|
[-6------------------------------(6)--------------------------------|
[-4------------------------------(4)--------------------------------|
[Guitar 2
[-------------------------------------------------------------------|
[-9--------(9)--------------------------------------------9---------|
[-8--------(8)-------------------------------------7b---------------|
[-------------------------------------------------------------------|
[-------------------------------------------------------------------|
[-------------------------------------------------------------------|

 Guitar 1
[-------------------------------------------------------------------|
[-------------------------------------------------------------------|
[-------------------------------------------------------------------|
[-6------------------------------(6)--------------------------------|
[-6------------------------------(6)--------------------------------|
[-4------------------------------(4)--------------------------------|
[Guitar 2
[-10----------------------------------------------------------------|
[-13b---------------------------------------------------------------|
[-------------------------------------------------------------------|
[-------------------------------------------------------------------|
[-------------------------------------------------------------------|
[-------------------------------------------------------------------|


|----------------------------------------------|
|----------------------------------------------|
|----------------------------------------------|
|-6------------(6)-------------6-6-6-6-6-6-6-6-|
|-6------------(6)-------------6-6-6-6-6-6-6-6-|
|-4------------(4)-------------4-4-4-4-4-4-4-4-|

          [-----------PM-----------]         
|------------------------------------|
|------------------------------------|
|------------------------------------|
|------------------------------------|
|-65---3----------------------------|
|-43-0-1-1-1-1-1-1-1-1-1-1-1-1-1-1--|

            PM  [--------PM---------]         
|------------------------------------|
|------------------------------------|
|------------------------------------|
|------------------------------------|
|-65---3-----2----------------------|
|-43-0-1---1-0-0-0-0-0-0-0-0-0-0-0--|

 Rpt above

     [--PM--]    [--PM--]   [--PM--]     [--PM--]   
|-------------------------------------------------|
|-------------------------------------------------|
|-------------------------------------------------|
|-8----------8-9----------8----------8-7----------|
|-6----------6-6----------6----------6-6----------|
|----0-0-0-0------0-0-0-0----0-0-0-0------0-0-0-0-|

     [--PM--]    [--PM--]   [--PM--]     [-PM-]   
|-----------------------------------------------|
|-----------------------------------------------|
|-----------------------------------------------|
|-8----------8-9----------8----------8-7--------|
|-6----------6-6----------6----------6-6--2--2--|
|----0-0-0-0------0-0-0-0----0-0-0-0------0--0--|

 Guitar 1
[---------------------------------------------------------------|
[---------------------------------------------------------------|
[---------------------------------------------------------------|
[----------------------------------3------------(3)-------------|
[-2--------(2)-----/5-5-5-5-54-4-0-1------------(1)-------------|
[-0--------(0)---------------------1------------(1)-------------|
[Guitar 2
[---------------------------------------------------------------|
[---------------------------------------------------------------|
[-----------------/7-7-7-7-76-6--2-3------------(3)-------------|
[----------------------------------3------------(3)-------------|
[-2--------(2)---------------------1------------(1)-------------|
[-0--------(0)--------------------------------------------------| Rpt


             ~~~~
|-----------------|
|-----------------|
|-----------------|
|-----------------|
|-----------------|
|-0--3--1--0--1---| Rpt 4 X
 
  [PM]    [PM] ~~~
|-----------------|
|-----------------|
|-----------------|
|-----------------|
|----5-3-----3---|
|-0--3-1--0--1---| Rpt 4 X


   [------PM-----]                  [------PM-----]
|----------------------------------------------------------|
|----------------------------------------------------------|
|----------------------------------------------------------|
|-----------------/7-7-7-7-76-6---3----------------2-2-2--|
|-2---------------/5-5-5-5-54-4-0-1-1-1-1-1-1-1-1-1-1-1---|
|-0-0-0-0-0-0-0-0------------------------------------------|

  [PM]    [PM] ~~~
|-----------------|
|-----------------|
|-----------------|
|-----------------|
|----5-3-----3---|
|-0--3-1--0--1---| Rpt 4 X

             ~~~~
|-----------------|
|-----------------|
|-----------------|
|-----------------|
|-----------------|
|-0--3--1--0--1---| Rpt 4 X

 Verse

 [--------PM---------]       [--------PM---------]
|----------------------------------------------------------|
|----------------------------------------------------------|
|----------------------------------------------------------|
|-----------------------------------------------------4----|
|-----------------------4---4-----------------------4---4--|
|-0-0-0-0-0-0-0-0-0-0/4---4---0-0-0-0-0-0-0-0-0-0-2--------|

 [--------PM---------]       [--------PM---------]
|----------------------------------------------------------|
|----------------------------------------------------------|
|----------------------------------------------------------|
|-----------------------------------------------------4----|
|-----------------------4---4-----------------------4---4--|
|-0-0-0-0-0-0-0-0-0-0/4---4---0-0-0-0-0-0-0-0-0-0-2--------|


 [--------PM---------]       
|-----------------------------|
|-----------------------------|
|-----------------------------|
|-----------------------------|
|-----------------------4---4-|
|-0-0-0-0-0-0-0-0-0-0/4---4---| Rpt 4 X

 Guitar on own
 [---------PM---------]
|-----------------------|
|-----------------------|
|-----------------------|
|-----------------------|
|-----------------------|
|-000--00000-000-00000--|

 Both guitars
 [------PM-------]
|-----------------|
|-----------------|
|-----------------|
|-----------------|
|-----------------|
|-00000-0000-000--| Rpt 3 X

 Guitar solo
   ~~~~~~~~~~~~~~~~~~ ~~~~~~~~~~~~~~~~~~ ~~~~~~~~~~~~~~~~~
|------------------------------------------------------------|
|------------------------------------------------------------|
|-/8-----------------11----------------/12-------------------|
|------------------------------------------------------------|
|-/6-----------------9-----------------/10-------------------|
|------------------------------------------------------------|

   ~~~~~~~~~~~~~~~~~~ ~~~~~~~~~~~~~~~~~~ ~~~~~~~~~~~~~~~~~~~~~~~~~
|---------------------------------------------------------------------|
|---------------------------------------------------------------------|
|-/8-----------------11----------------3-----------------------------|
|---------------------------------------------------------------------|
|-/6-----------------9-----------------1-----------------------------|
|---------------------------------------------------------------------|

     ~~~~     ph ph ph ph                          ~~~~~~~~
|--------------------------------------------------------------|
|-10-b---------------------------------------------------------|
|-10-b-----10-10-10-10-10--10-----11-10----11-----------------|
|------------------------------999-------999--999--------------|
|-------------------------------------------------8-----------|
|--------------------------------------------------------------|

     PM    ~~ PM          ~~~~  [-------------PM------------]         ~~~ 
|------------------------------------------------------------------------|
|------------------------------------------------------------------------|
|-10----10-8-----88-10-10-------10-11-8-10-11-8-10-11-8-10-11p10p8-------|
|----9---------9----------9---------------------------------------9-----|
|--------------------------------------------------------------------6---|
|------------------------------------------------------------------------|

     h   h    h   h    h   h    h   h    h   h    h   h
|--------------------------------------------------------|
|--------------------------------------------------------|
|-----/4-6-----/4-6-----/4-6-----/4-6-----/4-6-----/4-6--|
|-/3-5-----/3-5-----/3-5-----/3-5-----/3-5-----/3-5------|
|--------------------------------------------------------|
|--------------------------------------------------------|

     h   h    h   h   h   ~~~~  ~~~~
|-----------------------------------|
|-----------------------------------|
|-----/4-6-----/4-6-----1-----------|
|-/3-5-----/3-5-----1-3-------------|
|-------------------------1---------|
|------------------------------1----|


 Backing for solo

 [------PM-------]
|-----------------|
|-----------------|
|-----------------|
|-----------------|
|-----------------|
|-00000-0000-000--| Rpt 12 X

 [------PM-------]
|-----------------|
|-----------------|
|-----------------|
|-----------------|
|-----------------|
|-11111-1111-111--| Rpt 12 X


  [----PM----]  [----PM----] 
|-----------------------------------|
|-----------------------------------|
|-----------------------------------|
|-------------3--------------3-3----|
|-2-2-2-2-----1--2-2-2-2-----1-1----|
|-0-0-0-0-1-0----0-0-0-0-1-0--------|


 Guitar 1
              [PM]
[-----------------------------------|
[-----------------------------------|
[-----------------------------------|
[-----------------------------------|
[-2----(2)--------2------(2)--------|
[-0----(0)----0-0-0------(0)--------|
[Guitar 2
[ light palm muting
[-----------------------------6-7---|
[---5-----5---5/6---5-----5-6-------|
[-----4-----3---------4-------------|
[-------2---------------2-----------|
[-----------------------------------|
[-----------------------------------|

 Guitar 1
              [PM]
[-----------------------------------|
[-----------------------------------|
[-----------------------------------|
[-----------------------------------|
[-2----(2)--------2------(2)--------|
[-0----(0)----0-0-0------(0)--------|
[Guitar 2
[ light palm muting
[-----------------------------7-----|
[---5-----5---5/6---5-----5-6-------|
[-----4-----3---------4-------------|
[-------2---------------2-------3---|
[-----------------------------------|
[-----------------------------------|

 PM                 PM                 [-PM-]~~
|-----------------------------------------------|
|-----------------------------------------------|
|-----------------------------------------------|
|-----------------------------------------------|
|-3-2------(0)------3-2------(0)-------2-2-2----|
|-1-0------(0)------1-0------(0)-------0-0-0-0--|


END



 
 
Sepultura - Under Siege Tab :: indexed at Ultimate Guitar.
Under Siege tabs @ 911Tabs
People who played Sepultura - Under Siege Tab also played these songs by Sepultura:
Arise Chords, Roots Bloody Roots Tab, Territory Tab, Refuse Resist Tab, Orgasmatron Tab, War Tab, Meaningless Movements Tab, Propaganda Tab

About the artist behind Under Siege Tab:

Sepultura is a Brazilian thrash metal band, formed in 1984.

Their name means "grave" in Portuguese, which they chose after Max Cavalera, one of the founding members, was translating the lyrics of the Motörhead song "Dancing on Your Grave" from their Another Perfect Day album.[4]

Indexed at Wikipedia.

Show us your talent, perform Under Siege Tab!

Here you can post a video or audio performance. Tell me more ...
Where can we find your performance? Tell me more ...
Your comment:
Please, log in to post your performance.